Oops, an error
Loading. Please wait.

Daydream Tab

7,692 views 24 this week
3 commentsread comments
1 2 3 4 5
x 12
add to favorites
launch autoscroll
font size
0
reset
how to read this tab
guitar tuner
Autoscroll
slow
fast
+/-
esc
set tempo
stop
Help us to improve Ultimate-Guitar.com Take our survey!
×
Author
Difficulty
intermediate
standard tuning
100% by ear, sounds pretty right
played throughout the whole song


E-------------------------------------------------------------|
B------9-----8-------9-----8-------9-----8-------9------8-----|
G----8-----8---8---8-----8---8---8-----8---8---8------8---8---|
D--6-----6----------------------------------------------------|
A----------------6-----6---------------------6------6---------|
E------------------------------8-----8------------------------|
Suggest correction
comments
print report bad tab
3 comments total.
+1 reply
Raygunn 31 Feb 23, 2013 02:31 AM


|------------------------
|-----9-----8---------9-----8---------9-----8---------9-----8--------|
|---8-----8-----8---8-----8-----8---8-----8-----8---8-----8-----8----|
|-6-----6-----6------------------------------------------------------|
|-----------------6-----6-----6-------------------6-----6-----6------|
|---------------------------------8-----8-----8----------------------|

never would have figured that out without this tab though, thanks!

0 reply
Raygunn 31 Feb 23, 2013 02:33 AM

^ tab ****ed up a bit after i pressed enter, should be easy to figure out what i mean lol there are no chords of any kind, only single notes.

+1 reply
EdarotagV335 849 Mar 18, 2014 03:54 PM

capo the 6th fret

guest
You may want to rate the tab now too:
select rating
Wanna post a correction for this tab? Suggest correction