Oops, an error
Loading. Please wait.

Division Tab

115 views 15 this week
no commentswrite comment
1 2 3 4 5
3 more votes to show rating
add to favorites
launch autoscroll
font size
0
reset
how to read this tab
guitar tuner
Autoscroll
slow
fast
+/-
esc
set tempo
stop
Help us to improve Ultimate-Guitar.com Take our survey!
×
Author
Division by Tycho

This song is in 7/4 


[Intro]

e|---------------------------------------------------------------------------|
B|---------------------------------------------------------------------------|
G|---------------------------------------------------------------------------|
D|---------------------------------------------------------------------------|
A|---------------------------------------------------------------------------|
E|--5--5-5-5-8--8-8-8-8--7-7-7-5--5-5-5--------------------------------------|

e|---------------------------------------------------------------------------|
B|-----5-----5-----5-----5-----5-----5-----8-----5---------------------------|
G|--7-----7-----7-----7-----7-----7-----7-----7------------------------------|
D|---------------------------------------------------------------------------|
A|---------------------------------------------------------------------------|
E|---------------------------------------------------------------------------|

e|---------------------------------------------------------------------------|
B|-----5-----5-----5-----5-----5-----5--8-----8------------------------------|
G|--7-----7-----7-----7-----7-----7--------7-----7---------------------------|
D|---------------------------------------------------------------------------|
A|---------------------------------------------------------------------------|
E|---------------------------------------------------------------------------|


e|---------------------------------------------------------------------------|
B|--5-----5------------------------------------------------------------------|
G|-----7-----7---5--5--------------------------------------------------------|
D|---------------------5--7---7--7--7--7--7--7-------------------------------|
A|---------------------------------------------------------------------------|
E|---------------------------------------------------------------------------|

Gtr. 2 
e|---------------------------------------------------------------------------|
B|---------------------------------------------------------------------------|
G|--0---0--0---0---0--0---0---0--0---0---0--0--------------------------------|
D|--7---7--7---7---7--7---7---7--7---7---7--7--------------------------------|
A|---------------------------------------------------------------------------|
E|---------------------------------------------------------------------------|

Last time
e|---------------------------------------------------------------------------|
B|---------------------------------------------------------------------------|
G|--0---0--0---0---0--0---0---0h9-9--9--9\-----------------------------------|
D|--7---7--7---7---7--7---7---7---7--7--7\-----------------------------------|
A|---------------------------------------------------------------------------|
E|---------------------------------------------------------------------------|


[Verse]

All these are palm muted
e|---------------------------------------------------------------------------|
B|---------------------------------------------------------------------------|
G|--10-12--10-12---12-12-12-12-12-12-12-12-12-12-----------------------------|
D|---------------------------------------------------------------------------|
A|---------------------------------------------------------------------------|
E|---------------------------------------------------------------------------|

e|---------------------------------------------------------------------------|
B|---------------------------------------------------------------------------|
G|--12-10--9---12-10--9--9--9--9--9--9--9--9--9------------------------------|
D|---------------------------------------------------------------------------|
A|---------------------------------------------------------------------------|
E|---------------------------------------------------------------------------|

(1:17)
e|---------------------------------------------------------------------------|
B|---------------------------------------------------------------------------|
G|---------------------------------------------------------------------------|
D|--10-10-10-10-10-10-10-10-10---------10-10-10-10-10-10-10-10-10------------|
A|---------------------------------------------------------------------------|
E|---------------------------------------------------------------------------|

e|---------------------------------------------------------------------------|
B|---------------------------------------------------------------------------|
G|---------------------------------------------------------------------------|
D|--7--7--7--7--7--7--7--7--7----------7--7--7--7--7--7--7--7--7-------------|
A|---------------------------------------------------------------------------|
E|---------------------------------------------------------------------------|


[Chorus]

e|---------------------------------------------------------------------------|
B|--17tr---------------------------------------------------------------------|
G|----------------------17tr-------------------------------------------------|
D|---------------------------------17tr--------------------------------------|
A|---------------------------------------------------------------------------|
E|---------------------------------------------------------------------------|

e|---------------------------------------------------------------------------|
B|--17tr-------20tr---18-----------------------------------------------------|
G|-----------------------17tr------------------------------------------------|
D|----------------------------------17tr-------------------------------------|
A|---------------------------------------------------------------------------|
E|---------------------------------------------------------------------------|

Repeat for a bit with some variation
e|---------------------------------------------------------------------------|
B|---------------------------------------------------------------------------|
G|---------------------------------------------------------------------------|
D|--10-10-10-10-10-10-10-10-10---------10-10-10-10-10-10-10-10-10------------|
A|---------------------------------------------------------------------------|
E|---------------------------------------------------------------------------|

e|---------------------------------------------------------------------------|
B|---------------------------------------------------------------------------|
G|---------------------------------------------------------------------------|
D|--10-10-10-10-10-10-10-10-10---------10-14-12-12-12-10-10-10-10------------|
A|---------------------------------------------------------------------------|
E|---------------------------------------------------------------------------|

e|---------------------------------------------------------------------------|
B|--17tr---------------------------------------------------------------------|
G|----------------------17tr-------------------------------------------------|
D|---------------------------------17tr--------------------------------------|
A|---------------------------------------------------------------------------|
E|---------------------------------------------------------------------------|



************************************

| h  Hammer-on
| \  Slide down
| tr trill

************************************
Suggest correction
Give kudos to tab author, rate the tab!
1 2 3 4 5
comments
print report bad tab
guest
You may want to rate the tab now too:
select rating
Wanna post a correction for this tab? Suggest correction