Oops, an error
Loading. Please wait.

Pbs Tab

version 2
version 2

Whole song

  • This version considers bass notes (5th and 6th string).
16 views 1 this week
no commentswrite comment
1 2 3 4 5
3 more votes to show rating
add to favorites
launch autoscroll
font size
0
reset
how to read this tab
guitar tuner
Autoscroll
slow
fast
+/-
esc
set tempo
stop
Help us to improve Ultimate-Guitar.com Take our survey!
×
Author
Difficulty
Tuning
intermediate
D A D G B E
About this tab version
This version considers bass notes (5th and 6th string). Was this info helpful? Yes No
Tuning: Drop D (DADGBe)

[Verse]

e |---------------------------------------------------------------------------------------------------------|
B |------------------------------5----6p5-------------------------10--------------------------6-5---------5-|
G |-----10p9---------10-9-----------------5--------10-9--------------9-------10p9-----------------5---------|
D |----------10-7---------10----------------------------10------------------------10------------------------|
A |--0----------------------------------------------------------0-------------------------------------------|
D |-------------0--------------3----5-----------10------------------------10---------------3-----------0----|

e |---------------------------------------------------------------------------------------------------|
B |--------5-6-7h6-------------------10--------------6-5-------5----5------------------10--------10-8-|
G |------5---------------10-9--------------9-------------5------------5-7p5---------------9-----------|
D |---------------------------10-------------10-----------------------------7-------------------------|
A |-------------------0------------------0------------------------------------------------------------|
D |---5---------------------------10---------------3---------0----5------------7-10p7---------10------|

e |--------------------------------------------------|
B |-----------------------5--------------------------|
G |-----10p9----------------5-7p5--------------------|
D |----------10-7-----------------7------------------|
A |--0---------------------------------------7-7p5---|
D |-------------------7-5------------7-10p7----------|

Tab legend

***********************************
| h   Hummer-on
| p   Pull-off
***********************************
Suggest correction
Give kudos to tab author, rate the tab!
1 2 3 4 5
comments
print report bad tab
guest
You may want to rate the tab now too:
select rating
Wanna post a correction for this tab? Suggest correction