Oops, an error
Loading. Please wait.

Say A Prayer Tab

43 views 1 this week
no commentswrite comment
1 2 3 4 5
3 more votes to show rating
add to favorites
launch autoscroll
font size
0
reset
how to read this tab
guitar tuner
Autoscroll
slow
fast
+/-
esc
set tempo
stop
Help us to improve Ultimate-Guitar.com Take our survey!
×
Author
Difficulty
intermediate
About this tab version
All guitar for verse and chorus riff as well as guitar solo. Was this info helpful? Yes No
[Intro]

    Hold power chord and play during the verse too
e|---------------------------------------------------------------------------|
B|---------------------------------------------------------------------------|
G|---------------------------------------------------------------------------|
D|--9------------------------------------------------------------------------|
A|--9------------------------------------------------------------------------|
E|--7------------------------------------------------------------------------|

e|---------------------------------------------------------------------------|
B|---------------------------------------------------------------------------|
G|---------------------------------------------------------------------------|
D|--9------------------------------------------------------------------------|
A|--9------------------------------------------------------------------------|
E|--7------------------------------------------------------------------------|


[Verse]

    Well she's a blood hound chasing me down like I'm a criminal
e|---------------------------------------------------------------------------|
B|---------------------------------------------------------------------------|
G|---------------------------------------------------------------------------|
D|--9------------------------------------------------------------------------|
A|--9------------------------------------------------------------------------|
E|--7------------------------------------------------------------------------|
   Runnin and runnin and runnin like I'm an animal
e|---------------------------------------------------------------------------|
B|---------------------------------------------------------------------------|
G|---------------------------------------------------------------------------|
D|--9------------------------------------------------------------------------|
A|--9------------------------------------------------------------------------|
E|--7------------------------------------------------------------------------|
    Billboards promise rewards for my capture
e|---------------------------------------------------------------------------|
B|---------------------------------------------------------------------------|
G|---------------------------------------------------------------------------|
D|--9------------------------------------------------------------------------|
A|--9------------------------------------------------------------------------|
E|--7------------------------------------------------------------------------|
   Runnin and runnin and runnin but she's faster
e|---------------------------------------------------------------------------|
B|---------------------------------------------------------------------------|
G|---------------------------------------------------------------------------|
D|--9------------------------------------------------------------------------|
A|--9------------------------------------------------------------------------|
E|--7------------------------------------------------------------------------|


[Chorus]

                        Mama                   Say a prayer for me
e|---------------------------------------------------------------------------|
B|---------------------------------------------------------------------------|
G|-------------------7b------------------------7b----------------------------|
D|---------------9---7b---------------------9--7b----------------------------|
A|-----5--7-8-9--------------------5--7-8-9----------------------------------|
E|---9---------------------------9-------------------------------------------|
                    Mama                     Say a prayer for 
e|---------------------------------------------------------------------------|
B|---------------------------------------------------------------------------|
G|-------------------7b------------------------7b----------------------------|
D|---------------9---7b---------------------9--7b----------------------------|
A|-----5--7-8-9--------------------5--7-8-9----------------------------------|
E|---9---------------------------9-------------------------------------------|
    Your only child out in the wild you got him down on his knees    Mama
e|---------------------------------------------------------------------------|
B|---------------------------------------------------------------------------|
G|----------------------------------9--9--9--9--9--9--9--9-----------7b------|
D|---9--9--9--9--9--9--9--9---------9--9--9--9--9--9--9--9-----------7b------|
A|---9--9--9--9--9--9--9--9---------7--7--7--7--7--7--7--7-------------------|
E|---7--7--7--7--7--7--7--7--------------------------------------------------|
                    Say a prayer for me
e|---------------------------------------------------------------------------|
B|---------------------------------------------------------------------------|
G|---------------------------------------------------------------------------|
D|----------------9------------------9---------------------------------------|
A|------5--7-8-9---------------------9---------------------------------------|
E|----9------------------------------7---------------------------------------|
    Well I'm addicted to the fix of her chemicals
e|---------------------------------------------------------------------------|
B|---------------------------------------------------------------------------|
G|---------------------------------------------------------------------------|
D|--9------------------------------------------------------------------------|
A|--9------------------------------------------------------------------------|
E|--7------------------------------------------------------------------------|
    I need it i need it i need it I need a miracle
e|---------------------------------------------------------------------------|
B|---------------------------------------------------------------------------|
G|---------------------------------------------------------------------------|
D|--9------------------------------------------------------------------------|
A|--9------------------------------------------------------------------------|
E|--7------------------------------------------------------------------------|
    water to wine got me drinking like a sailor
e|---------------------------------------------------------------------------|
B|---------------------------------------------------------------------------|
G|---------------------------------------------------------------------------|
D|--9------------------------------------------------------------------------|
A|--9------------------------------------------------------------------------|
E|--7------------------------------------------------------------------------|
    I need it i need it i need it I need a chaser
e|---------------------------------------------------------------------------|
B|---------------------------------------------------------------------------|
G|---------------------------------------------------------------------------|
D|--9------------------------------------------------------------------------|
A|--9------------------------------------------------------------------------|
E|--7------------------------------------------------------------------------|
                        Mama                   Say a prayer for me
e|---------------------------------------------------------------------------|
B|---------------------------------------------------------------------------|
G|-------------------7b------------------------7b----------------------------|
D|---------------9---7b---------------------9--7b----------------------------|
A|-----5--7-8-9--------------------5--7-8-9----------------------------------|
E|---9---------------------------9-------------------------------------------|
                    Mama                     Say a prayer for 
e|---------------------------------------------------------------------------|
B|---------------------------------------------------------------------------|
G|-------------------7b------------------------7b----------------------------|
D|---------------9---7b---------------------9--7b----------------------------|
A|-----5--7-8-9--------------------5--7-8-9----------------------------------|
E|---9---------------------------9-------------------------------------------|
    Your only child out in the wild you got him down on his knees    Mama
e|---------------------------------------------------------------------------|
B|---------------------------------------------------------------------------|
G|----------------------------------9--9--9--9--9--9--9--9-----------7b------|
D|---9--9--9--9--9--9--9--9---------9--9--9--9--9--9--9--9-----------7b------|
A|---9--9--9--9--9--9--9--9---------7--7--7--7--7--7--7--7-------------------|
E|---7--7--7--7--7--7--7--7--------------------------------------------------|
                     Say a prayer
e|---------------------------------------------------------------------------|
B|---------------------------------------------------------------------------|
G|-------------------7b------------------------------------------------------|
D|---------------9---7b------------------------------------------------------|
A|-----5--7-8-9--------------------------------------------------------------|
E|---9-----------------------------------------------------------------------|
    Heartless heartless   bones and cartilage
e|---------------------------------------------------------------------------|
B|---------------------------------------------------------------------------|
G|---------- -------------9---9---9---9--------------------------------------|
D|---9---9---9---9--------9---9---9---9--------------------------------------|
A|---9---9---9---9--------7---7---7---7--------------------------------------|
E|---7---7---7---7-----------------------------------------------------------|
    tried to stop me      digging out a splinter
e|---------------------------------------------------------------------------|
B|---------------------------------------------------------------------------|
G|---------- -------------9b11r9--7--9--9~-----------------------------------|
D|---9---9---9---9--------------------------9--------------------------------|
A|---9---9---9---9-----------------------------------------------------------|
E|---7---7---7---7-----------------------------------------------------------|
     mother mother        I still want her
e|---------------------------------------------------------------------------|
B|---------------------------------------------------------------------------|
G|---------- -------------9---9---9---9--------------------------------------|
D|---9---9---9---9--------9---9---9---9--------------------------------------|
A|---9---9---9---9--------7---7---7---7--------------------------------------|
E|---7---7---7---7-----------------------------------------------------------|


[Solo]

e|---------------------------------------------------------------------------|
B|---------------------------------------------------------------------------|
G|-------------7-9-9b11-9-7---7----------------7-9-9b11-9-7------------------|
D|-------7-9-9--------------9---7--------7-9-9--------------7-9--------------|
A|----/9------------------------------/9-------------------------------------|
E|---------------------------------------------------------------------------|

e|---------------------------------------------------------------------------|
B|---------------------------------------------------------------------------|
G|---------------------------------------------------------------------------|
D|-------7-9-9-11b12r11-9-7-----7-9------------------------------------------|
A|----/9--------------------9-7----------------------------------------------|
E|---------------------------------------------------------------------------|

e|---------------------------------------------------------------------------|
B|---10p7---------10p7--------10p7-------------------------------------------|
G|---------9/11---------9/11---------9b11r9-7--------------------------------|
D|--------------------------------------------9------------------------------|
A|---------------------------------------------------------------------------|
E|---------------------------------------------------------------------------|

e|---------------------------------------------------------------------7------10--------|
B|------------------------------------------------------7---7h10--7h10---7h10----10b12--|
G|---9-7-9-11-/14-9---7---7-9--6b7r6-4--4h6h7-6h7h9-7h9---9-----------------------------|
D|----------------------9---------------------------------------------------------------|
A|--------------------------------------------------------------------------------------|
E|--------------------------------------------------------------------------------------|

e|-----------------------------------------------------------------------12b14--|
B|---12p10----10-------------10-----10-9-10-12-14-12----10-9-10-12-14-12--------|
G|---------11----9p7----9/11----------------------------------------------------|
D|-------------------9----------------------------------------------------------|
A|------------------------------------------------------------------------------|
E|------------------------------------------------------------------------------|

e|------------------------------------------------------------------------------|
B|---10-9-10-12-14-12p10----10------------10-9-10-12-10-12-14-17-17b19-17b19----|
G|-----------------------11----11p9p7-------------------------------------------|
D|------------------------------------9-----------------------------------------|
A|------------------------------------------------------------------------------|
E|------------------------------------------------------------------------------|
             Mama                   Say a prayer for me
e|---------------------------------------------------------------------------|
B|---------------------------------------------------------------------------|
G|-----------7b-----------------------7b-------------------------------------|
D|-----------7b--------------------9--7b-------------------------------------|
A|-----------------------5--7-8-9--------------------------------------------|
E|---------------------9-----------------------------------------------------|
                    Mama                     Say a prayer for 
e|---------------------------------------------------------------------------|
B|---------------------------------------------------------------------------|
G|-------------------7b------------------------7b----------------------------|
D|---------------9---7b---------------------9--7b----------------------------|
A|-----5--7-8-9--------------------5--7-8-9----------------------------------|
E|---9---------------------------9-------------------------------------------|
    Your only child out in the wild you got him down on his knees    
e|---------------------------------------------------------------------------|
B|---------------------------------------------------------------------------|
G|----------------------------------9--9--9--9--9--9--9--9-------------------|
D|---9--9--9--9--9--9--9--9---------9--9--9--9--9--9--9--9-------------------|
A|---9--9--9--9--9--9--9--9---------7--7--7--7--7--7--7--7-------------------|
E|---7--7--7--7--7--7--7--7--------------------------------------------------|
The prodigal son at the point of a gun He's got you begging him please Mama
e|---------------------------------------------------------------------------|
B|---------------------------------------------------------------------------|
G|-------------------------------------9--9--9--9--9--9--9--9-----------7b---|
D|---9--9--9--9--9--9--9--9------------9--9--9--9--9--9--9--9-----------7b---|
A|---9--9--9--9--9--9--9--9------------7--7--7--7--7--7--7--7----------------|
E|---7--7--7--7--7--7--7--7--------------------------------------------------|   
              Say a prayer for me              Mama
e|---------------------------------------------------------------------------|
B|---------------------------------------------------------------------------|
G|-------------------7b------------------------7b----------------------------|
D|---------------9---7b---------------------9--7b----------------------------|
A|-----5--7-8-9--------------------5--7-8-9----------------------------------|
E|---9---------------------------9-------------------------------------------|
               Say a prayer for me Say a prayer for me
e|---------------------------------------------------------------------------|
B|---------------------------------------------------------------------------|
G|-------------------7b------------------------------------------------------|
D|---------------9---7b---------------------9-------9-9----------------------|
A|-----5--7-8-9--------------------5--7-8-9---------9-9----------------------|
E|---9---------------------------9------------------7-7----------------------|



************************************

| h   Hammer-on
| p   Pull-off
| r   Release
| b   Bend
| br  Bend release
| /   Slide up

************************************
Suggest correction
Give kudos to tab author, rate the tab!
1 2 3 4 5
comments
print report bad tab
guest
You may want to rate the tab now too:
select rating
Wanna post a correction for this tab? Suggest correction