Oops, an error
Loading. Please wait.

End Of The Road Tab

2,795 views 1 this week
no commentswrite comment
1 2 3 4 5
2 more votes to show rating
add to favorites
launch autoscroll
font size
0
reset
how to read this tab
guitar tuner
Autoscroll
slow
fast
+/-
esc
set tempo
stop
Help us to improve Ultimate-Guitar.com Take our survey!
×
Author
Difficulty
Capo
intermediate
5th fret
-----------------------------------------------------------------------------
			     End of the Road - Tyler Burkum
-----------------------------------------------------------------------------
Tabbed by: Robert Healy
Email: rghealy5@hotmail.com

I recently saw Tyler Burkum live and liked this song enough to tab it out.
So here it is. Capo 5. Play the intro twice through with the pattern shown.

The rest of the song uses this pattern as well. Listen to the song as I

haven't tabbed it out step by step. I'm 100% sure this is correct.


Tuning: standard (capo 5)

(Chords used relative to capo)

     G   G/F#  Csus2   C      E7    CsusMaj7
 e|--x-----x-----x-----x------x------x--------|
 B|--0-----3-----0-----1------0------3--------|
 G|--0-----0-----0-----0------2------0--------|
 D|--0-----0-----2-----2------1------4--------|
 A|--2-----0-----3-----3------2------0--------|
 E|--3-----2-----0-----0------0------3--------|


   Intro X 2

 e|------------------------------------------------------------------------|
 B|---0------------------0--------------3-----------------------3----------|
 G|---0----0---0-----0---------0--------0-----0-----0-----0-----------0----|
 D|----------0---------0----------0--------------0-----------0-----------0-|
 A|------------------------------------------------------------------------|
 E|3-----3--------3---------3--------2-----2-----------2-----------2-------|

 e|-------------------------------------------------------------------------|
 B|---0------------------0-----------0h1----1--------------------1----------|
 G|---0---0---0----0-----------0-----0------0----0---0-----0-----------0----|
 D|---2-----2---------2-----------2--2------2------2----------2-----------2-|
 A|-------------------------------------------------------------------------|
 E|0----0-------0-----------0-------------0---0---------0-----------0-------|


   G				   G/F#
Darling put your feet on the dash

 Csus2		            C
breathe the sweet summer air

G			  G/F#
we don't know where we're going

     Csus2         C
but we don't care

G	          G/F#  E7
darling hold my hand

      Csus2      C
and never let go

G	  G/F#	       C	 G
walk with me, til the end of the road


G			 G/F#
roll all the windows down

 Csus2			 C
let your hair fly in the wind

G           G/F#
close your eyes

	 Csus2		 	C
feel the moonlight kiss your skin

G	     G/F#  E7
i love you now

	 Csus2		 C
and i'll always love you so

G	    G/F#       C	     G
walk with me, til the end of the road

G	    G/F#       C	     G
walk with me, til the end of the road


-Interlude-


   (String part tabbed for guitar)

     G  E7      Csus2   C       G
 e|-----------2---------------------|
 B|--3--4--5-----5--3---1--3--1--0--|
 G|---------------------------------|
 D|---------------------------------|
 A|---------------------------------|
 E|---------------------------------|

E7         Csus2   C           G      CsusMaj7
i want to say it in a million ways
i want to tell you that i love       you (that i love you)
				     Repeat X 6
 e|--------------------------------|---------------|
 B|--4--5--2--3--1--0--4--5--3--1--|-----------3---|
 G|--------------------------------|.-----0-------.|
 D|--------------------------------|.--------4----.|
 A|--------------------------------|---------------|
 E|--------------------------------|--3------------|

G         G/F#	  Csus2        C
so much time, and nowhere to be

G	                 G/F#
i've got one hand on the wheel

         Csus2	       C
and the other on your knee

G
i love you


G/F#  E7  Csus2                C
so much more than i could ever show

G		 G/F#		C            G
so i'll walk with you, til the end of the road

		      (slow)		 (strum)
G		 G/F#	     C            G
i'll walk with you, til the end of the road
Suggest correction
Give kudos to tab author, rate the tab!
1 2 3 4 5
comments
print report bad tab
guest
You may want to rate the tab now too:
select rating
Wanna post a correction for this tab? Suggest correction