Oops, an error
Loading. Please wait.

Glad Tab

version 1
version 1

Whole song

11,617 views 1 this week
1 commentread comment
1 2 3 4 5
please rate
add to favorites
launch autoscroll
font size
0
reset
how to read this tab
guitar tuner
Tab Pro tools
  • play this tab
  • loop segment
  • change instrument
  • show fretboard
  • metronome
×
Best way to learn
"Glad"
Autoscroll
slow
fast
+/-
esc
set tempo
stop
Contributor
I figured out most of this by watching his Sessions@AOL perfomance.



Intro
      D    G    D   (listen to where he hits the 3rd note here)
e|----2----3----2----0-3-0------------------------------------|
B|----3----3----3----3-3-3------------------------------------|
G|----2----0----2----0-0-0------------------------------------|
D|---------0---------2-2-2------------------------------------|
A|---------2---------3-3-3------------------------------------|
E|---------3---------0-0-0------------------------------------|

Verse: 

    G        Em    A
e|--3----0----0----0----------------------------------------|
B|--3----3----0----2----------------------------------------|
G|--0----0----0----2----------------------------------------|
D|--0----2----2----2----------------------------------------|
A|--2----3----2----0----------------------------------------|
E|--3----0----0----0----------------------------------------|
Everywhere you go, perfection, Follows you the wrong, direction,


     F#   G           G    D    G   D
e|---3----3-----------3----2----3---2---------------------------|
B|---4----3-----------3----3----3---3---------------------------|
G|---5----4-----------0----2----0---3---------------------------|
D|---5----5-----------0----0----0---0---------------------------|
A|---3----5-----------2----0----2---0---------------------------|
E|---3----3-----------3----0----3---0---------------------------|
And you will never...You get all...You see it, you want it...

Chorus:
    G        C
e|--3---x----0----0---------------------------------------|
B|--3---7----1----3---------------------------------------|
G|--4---8----0----4---------------------------------------|
D|--5---9----2----5---------------------------------------|
A|--5---9----3----5---------------------------------------|
E|--3---7----0----0---------------------------------------|
But you can say...Take what you...Choose the...When you want

    G   D        A         G   (this is just before the next verse)
e|--3---2----0---0---------3--0-3-0-----------------------------|
B|--3---3----3---2---------3--3-3-3-----------------------------|
G|--0---2----0---2---------0--0-0-0-----------------------------|
D|--0---0----2---2---------0--2-2-2-----------------------------|
A|--2---0----3---0---------2--3-3-3-----------------------------|
E|--3---0----0---0---------3--0-0-0-----------------------------|
You said your...something special...Which you don't...well aren't you glad?


    G   D   Em  A
e|--3---2---0---0-----------------------------------------|
B|--3---3---0---2-----------------------------------------|
G|--0---2---0---2-----------------------------------------|
D|--0---0---2---2-----------------------------------------|
A|--2---0---2---0-----------------------------------------|
E|--3---0---0---0-----------------------------------------|
They only want to...exception...Try all of your...deception
     F#  G       G   D   G   D
e|---3---3-------3---2---3---2-------------------------------|
B|---4---3-------3---3---3---3-------------------------------|
G|---5---4-------0---2---0---2-------------------------------|
D|---5---5-------0---0---0---0-------------------------------|
A|---3---5-------2---0---2---0-------------------------------|
E|---3---3-------3---0---3-----------------------------------
And on your...Is make me...You want one, Cause I'm one, Who plays

Chorus

    G        C
e|--3---x----0----0------------------------------------------|
B|--3---7----1----3------------------------------------------|
G|--4---8----0----4------------------------------------------|
D|--5---9----2----5------------------------------------------|
A|--5---9----3----5------------------------------------------|
E|--3---7----0----0------------------------------------------|
But you can say...Take what you...Choose the...When you want

    G   D        A         G   (play this is just before the bridge)
e|--3---2----0---0---------3--0-3-0-----------------------------|
B|--3---3----3---2---------3--3-3-3-----------------------------|
G|--0---2----0---2---------0--0-0-0-----------------------------|
D|--0---0----2---2---------0--2-2-2-----------------------------|
A|--2---0----3---0---------2--3-3-3-----------------------------|
E|--3---0----0---0---------3--0-0-0-----------------------------|
You said your...something special...Which you don't...well aren't you glad?

Bridge:
    G   D    (play this and then go straight into the chorus again)
e|--3---2----------0-3-0------------------------------------
B|--3---3----------3-3-3------------------------------------|
G|--0---2---(x4)---0-0-0------------------------------------|
D|--0---0----------2-2-2------------------------------------|
A|--2---0----------3-3-3------------------------------------|
E|--3---0----------0-0-0------------------------------------|
Now you got it bad, I know you do...

Now play the Chorus a couple more times then to finish, switch between the G and the A
chords 4 or 5 times when he sings "Well, aren't you glad? (Oh, yeah) Aren't you glad,
yeah?" and end one the G chord
comments
We did not receive enough feedback on this tab! Please rate:
print report bad tab
1 2 3 4 5
1 comment total.
0 reply
harper wrote on April 5 2006, 12:03 pm

can someone pleasee tab "picture perfect" by tyler hilton

pleasee

sam

I want to post or [tab]
guest
You may want to rate the tab now too:
select rating
Please do not post tabs as comments. Select "correction" instead!