Oops, an error
Loading. Please wait.

When The Stars Go Blue tab

version 1
version 1

Whole song

118,802 views 39 this week
11 commentsread comments
1 2 3 4 5
x 34
add to favorites
×
Save as Personal and add changes to this tab that will be seen only by you. Learn more ›
×
You can save this tab as Personal to edit and correct it or add notes. All changes will be seen only by you. Learn more »
launch autoscroll
font size
0
reset
how to read this tab
guitar tuner
edit
Autoscroll
slow
fast
+/-
esc
set tempo
stop
Author
Tyler Hilton / Bethany Joy Lenz - When the Stars Go Blue

Hey this is the soundtrack from One Tree Hill. It's a really nice song and it's very easy to learn.
This is my second tab so far and I think this is pretty correct. This song sounds best in acoustics.
If you have any corrections, email me at cunhat03@yahoo.com


Standard tuning

Chords:

Am:    01220x
C:     010230
G:     330023
D:     00232x
Dsus2: 00023x

[Intro]
       Am        C        G         D
E|--------------------------------------|
B|----------------------------------3---|
G|------2--------0--------0-------2---0-|
D|----2---2----2---0----0---0---0-------|
A|--0--------3--------------------------|
E|--------------------3-----------------|(x2)

[Verse 1]

        Am        C        G         D
E|--------------------------------------|
B|----------------------------------3---|
G|------2--------0--------0-------2---0-|
D|----2---2----2---0----0---0---0-------|
A|--0--------3--------------------------|
E|--------------------3-----------------|(x3)
    Dancin' where the stars go blue
    Dancin' where the evening fell
    Dancin' in my wooden shoes

        Am        C
E|-----------------------|
B|------------------1----|
G|------2--------0--0----|
D|----2---2----2----2----|
A|--0--------3------3----|
E|-----------------------|
    In a wedding gown

[Verse 2]

        Am        C        G         D
E|--------------------------------------|
B|----------------------------------3---|
G|------2--------0--------0-------2---0-|
D|----2---2----2---0----0---0---0-------|
A|--0--------3--------------------------|
E|--------------------3-----------------|(x3)
    Dancin' out on 7th street
    Dancin' through the underground
    Dancin' little marionette

        Am        C
E|-----------------------|
B|------------------1----|
G|------2--------0--0----|
D|----2---2----2----2----|
A|--0--------3------3----|
E|-----------------------|
    Are you happy now?

[Chorus]

C            G              Dsus2    C
Where do you go when you're lonely

C            G              Dsus2    C
Where do you go when you're blue

C            G              Dsus2
Where do you go when you're lonely

Am           C
I'll follow you

When the stars go blue  G  D  C   2x

[Verse 3]

        Am        C        G         D
E|--------------------------------------|
B|----------------------------------3---|
G|------2--------0--------0-------2---0-|
D|----2---2----2---0----0---0---0-------|
A|--0--------3--------------------------|
E|--------------------3-----------------|(x3)
    Laughing with your pretty mouth
    Laughing with your broken eyes
    Laughing with your lover's tongue

        Am        C
E|-----------------------|
B|------------------1----|
G|------2--------0--0----|
D|----2---2----2----2----|
A|--0--------3------3----|
E|-----------------------|
    In a lullaby yeahhhhh

[Chorus] (x2)
C            G              Dsus2    C
Where do you go when you're lonely

C            G              Dsus2    C
Where do you go when you're blue

C            G              Dsus2
Where do you go when you're lonely

Am           C        C
I'll follow you   yeahhhhhh!


When the stars go blue  G   D   C   4x

C            G              Dsus2    C
Where do you go when you're lonely

C            G
Where do you go when you're blue  E|--------3--|
                                  B|-------3---|
                                  G|------0----|
                                  D|-----0-----|
                                  A|----2------|
                                  E|---3-------|

            
            
Suggest correction
Creating personal tab
Creating personal tab
You can edit any tab online and save it as your Personal.

You can edit, replace or remove any tab part or add personal notes – all changes will be seen only by you.

Personal tabs can be accessed anytime from any device, even offline.
Learn more »
comments
print report bad tab
11 comments total. Showing first comments.
0 reply
acoustic89 10 Feb 24, 2005 07:00 PM

This is a pretty good tab, but one question...could you please define the dsus2 chord you used? I'm a beginner and I'm not sure what fingering you used for it. Thanks!

0 reply
skazn03 70 Feb 28, 2005 07:00 PM

Chords:
Am-01220x
C-010230
G-330023
D-23200x
Dsus2-02300x

0 reply
harper 10 Apr 05, 2006 07:39 AM

can someone pleasee tab "picture perfect" by tyler hilton

pleasee

sam

guest
You may want to rate the tab now too:
select rating
Wanna post a correction for this tab? Suggest correction