Oops, an error
Loading. Please wait.

When The Stars Go Blue tab

version 2
version 2

Whole song

6,997 views 1 this week
no commentswrite comment
1 2 3 4 5
2 more votes to show rating
add to favorites
×
Save as Personal and add changes to this tab that will be seen only by you. Learn more ›
×
You can save this tab as Personal to edit and correct it or add notes. All changes will be seen only by you. Learn more »
launch autoscroll
font size
0
reset
how to read this tab
guitar tuner
edit
Autoscroll
slow
fast
+/-
esc
set tempo
stop
Author
Difficulty
Standard tuning

Chords:
Am-01220x
C-010230
G-330023
D-00232x
Dsus2-00023x

Intro:
       Am        C        G         D
E:|-------------------------------------|
B:|---------------------------------3---|
G:|-----2--------0--------0-------2---0-|  2x
D:|---2---2----2---0----0---0---0-------|
A:|-0--------3--------------------------|
E:|-------------------2-----------------|

Verse 1:

	Am        C        G         D
E:|-------------------------------------|
B:|---------------------------------3---|
G:|-----2--------0--------0-------2---0-| 3x
D:|---2---2----2---0----0---0---0-------|
A:|-0--------3--------------------------|
E:|-------------------3-----------------|
    Dancin' where the stars go blue
    Dancin' where the evening fell
    Dancin' in my wooden shoes

	Am        C
E:|----------------------|
B:|-----------------1----|
G:|-----2--------0--0----|
D:|---2---2----2----2----|
A:|-0--------3------3----|
E:|----------------------|
    In a wedding gown

Verse 2:

	Am        C        G         D
E:|-------------------------------------|
B:|---------------------------------3---|
G:|-----2--------0--------0-------2---0-| 3x
D:|---2---2----2---0----0---0---0-------|
A:|-0--------3--------------------------|
E:|-------------------3-----------------|
    Dancin' out on 7th street
    Dancin' through the underground
    Dancin' little marionette

	Am        C
E:|----------------------|
B:|-----------------1----|
G:|-----2--------0--0----|
D:|---2---2----2----2----|
A:|-0--------3------3----|
E:|----------------------|
    Are you happy now?

Chorus:

C            G              Dsus2    C
Where do you go when you're lonely

C            G              Dsus2    C
Where do you go when you're blue

C            G              Dsus2
Where do you go when you're lonely

Am           C
I'll follow you

When the stars go blue  G  D  C   2x

Verse 3:

	Am        C        G         D
E:|-------------------------------------|
B:|---------------------------------3---|
G:|-----2--------0--------0-------2---0-| 3x
D:|---2---2----2---0----0---0---0-------|
A:|-0--------3--------------------------|
E:|-------------------3-----------------|
    Laughing with your pretty mouth
    Laughing with your broken eyes
    Laughing with your lover's tongue

	Am        C
E:|----------------------|
B:|-----------------1----|
G:|-----2--------0--0----|
D:|---2---2----2----2----|
A:|-0--------3------3----|
E:|----------------------|
    In a lullaby yeahhhhh

Chorus: 2x

C            G              Dsus2    C
Where do you go when you're lonely

C            G              Dsus2    C
Where do you go when you're blue

C            G              Dsus2
Where do you go when you're lonely

Am           C        C
I'll follow you   yeahhhhhh!


When the stars go blue  G   D   C   4x

C            G              Dsus2    C
Where do you go when you're lonely

C            G
Where do you go when you're blue  E:|-------3--|
                                  B:|------3---|
                                  G:|-----0----|
                                  D:|----0-----|
                                  A:|---2------|
                                  E:|--3-------|

            
            
Suggest correction
Creating personal tab
Creating personal tab
You can edit any tab online and save it as your Personal.

You can edit, replace or remove any tab part or add personal notes – all changes will be seen only by you.

Personal tabs can be accessed anytime from any device, even offline.
Learn more »
Give kudos to tab author, rate the tab!
1 2 3 4 5
comments
print report bad tab
guest
You may want to rate the tab now too:
select rating
Wanna post a correction for this tab? Suggest correction