Oops, an error
Loading. Please wait.

Blasphemy Tab

46 views 12 this week
no commentswrite comment
1 2 3 4 5
3 more votes to show rating
add to favorites
launch autoscroll
font size
0
reset
how to read this tab
guitar tuner
Autoscroll
slow
fast
+/-
esc
set tempo
stop
Help us to improve Ultimate-Guitar.com Take our survey!
×
Author
Difficulty
Capo
novice
1st fret
[Intro]
e|-----------|-----------|-----------|-----------|
B|-----------|-----------|-----------|-----------|
G|---0---0---|-----------|-----------|-----------|
D|-2---2-----|---4---4---|---2---2---|---4---4---|
A|-----------|-5---5-----|-3---3-----|-2---2-----|
E|-----------|-----------|-----------|-----------|

e|-----------------|-----------------|-----------------|-----------------|
B|---------0-------|---------0-------|---------0-------|---------0-------|
G|---0---0---0---0-|-----------------|-----------------|-----------------|
D|-2---2-------2---|---4---4---4---4-|---2---2---2---2-|---4---4---4---4-|
A|-----------------|-5---5-------5---|-3---3-------3---|-2---2-------2---|
E|-----------------|-----------------|-----------------|-----------------|

[Verse 1]
    I start to part...
e|-----------------|-----------------|-----------------|-----------------|
B|---------0-------|---------0-------|---------0-------|---------0-------|
G|---0---0---0---0-|-----------------|-----------------|-----------------|(4x)
D|-2---2-------2---|---4---4---4---4-|---2---2---2---2-|---4---4---4---4-|
A|-----------------|-5---5-------5---|-3---3-------3---|-2---2-------2---|
E|-----------------|-----------------|-----------------|-----------------|

[Chorus]
     Sing a song...
e|-0-0---|-0-0---|-0-0---|-0-0---|-3-3---|-3-3---|-2-2---|-2-2---|
B|-0-0---|-0-0---|-1-1---|-1-1---|-0-0---|-0-0---|-3-3---|-3-3---|
G|-0-0---|-0-0---|-0-0---|-0-0---|-0-0---|-0-0---|-2-2---|-2-2---|
D|-2-2---|-2-2---|-2-2---|-2-2---|-0-0---|-0-0---|-0-0---|-0-0---|
A|-2-2---|-2-2---|-3-3---|-3-3---|-2-2---|-2-2---|-------|-------|
E|-0-0---|-0-0---|-------|-------|-3-3---|-3-3---|-------|-------|
   Em              C               G               D
  Can I understand you?...
e|-0-0-0-0-|-0-0-0-0-|-0-0-0-0-|-0-0-0-0-|-3-3-3-3-|-3-3-3-3-|-2-2-2-2-|-2-2-2-2-|
B|-0-0-0-0-|-0-0-0-0-|-1-1-1-1-|-1-1-1-1-|-0-0-0-0-|-0-0-0-0-|-3-3-3-3-|-3-3-3-3-|
G|-0-0-0-0-|-0-0-0-0-|-0-0-0-0-|-0-0-0-0-|-0-0-0-0-|-0-0-0-0-|-2-2-2-2-|-2-2-2-2-|
D|-2-2-2-2-|-2-2-2-2-|-2-2-2-2-|-2-2-2-2-|-0-0-0-0-|-0-0-0-0-|-0-0-0-0-|-0-0-0-0-|
A|-2-2-2-2-|-2-2-2-2-|-3-3-3-3-|-3-3-3-3-|-2-2-2-2-|-2-2-2-2-|---------|---------|
E|-0-0-0-0-|-0-0-0-0-|---------|---------|-3-3-3-3-|-3-3-3-3-|---------|---------|
   Em                  C                   G                   D

[Verse 2]
e|-----------|-----------|-----------|-----------|
B|-----------|-----------|-----------|-----------|
G|---0---0---|-----------|-----------|-----------|
D|-2---2-----|---4---4---|---2---2---|---4---4---|
A|-----------|-5---5-----|-3---3-----|-2---2-----|
E|-----------|-----------|-----------|-----------|
Lights...
e|-----------|-----------|-----------|-----------|
B|-----------|-----------|-----------|-----------|
G|---0---0---|-----------|-----------|-----------|(x2)
D|-2---2-----|---4---4---|---2---2---|---4---4---|
A|-----------|-5---5-----|-3---3-----|-2---2-----|
E|-----------|-----------|-----------|-----------|
Enough about...
e|-----------------|-----------------|-----------------|-----------------|
B|---------0-------|---------0-------|---------0-------|---------0-------|
G|---0---0---0---0-|-----------------|-----------------|-----------------|(x2)
D|-2---2-------2---|---4---4---4---4-|---2---2---2---2-|---4---4---4---4-|
A|-----------------|-5---5-------5---|-3---3-------3---|-2---2-------2---|
E|-----------------|-----------------|-----------------|-----------------|

[Chorus]
     Sing a song...
e|-0-0---|-0-0---|-0-0---|-0-0---|-3-3---|-3-3---|-2-2---|-2-2---|
B|-0-0---|-0-0---|-1-1---|-1-1---|-0-0---|-0-0---|-3-3---|-3-3---|
G|-0-0---|-0-0---|-0-0---|-0-0---|-0-0---|-0-0---|-2-2---|-2-2---|
D|-2-2---|-2-2---|-2-2---|-2-2---|-0-0---|-0-0---|-0-0---|-0-0---|
A|-2-2---|-2-2---|-3-3---|-3-3---|-2-2---|-2-2---|-------|-------|
E|-0-0---|-0-0---|-------|-------|-3-3---|-3-3---|-------|-------|
   Em              C               G               D
  Can I understand you?...
e|-0-0-0-0-|-0-0-0-0-|-0-0-0-0-|-0-0-0-0-|-3-3-3-3-|-3-3-3-3-|-2-2-2-2-|-2-2-2-2-|
B|-0-0-0-0-|-0-0-0-0-|-1-1-1-1-|-1-1-1-1-|-0-0-0-0-|-0-0-0-0-|-3-3-3-3-|-3-3-3-3-|
G|-0-0-0-0-|-0-0-0-0-|-0-0-0-0-|-0-0-0-0-|-0-0-0-0-|-0-0-0-0-|-2-2-2-2-|-2-2-2-2-|
D|-2-2-2-2-|-2-2-2-2-|-2-2-2-2-|-2-2-2-2-|-0-0-0-0-|-0-0-0-0-|-0-0-0-0-|-0-0-0-0-|
A|-2-2-2-2-|-2-2-2-2-|-3-3-3-3-|-3-3-3-3-|-2-2-2-2-|-2-2-2-2-|---------|---------|
E|-0-0-0-0-|-0-0-0-0-|---------|---------|-3-3-3-3-|-3-3-3-3-|---------|---------|
   Em                  C                   G                   D

[Verse 3]
   I want...
e|-0-0---|-0-0-2-2-|-0-0---|-0-0-2-2-|-3-3---|-3-3-2-2-|-2-2---|-2---5-5-|
B|-0-0---|-0-0-0-0-|-1-1---|-1-1-1-1-|-0-0---|-0-0-3-3-|-3-3---|-3---7-7-|
G|-0-0---|-0-0-----|-0-0---|-0-0-----|-0-0---|-0-0-----|-2-2---|-2-------|
D|-2-2---|-2-2-----|-2-2---|-2-2-----|-0-0---|-0-0-----|-0-0---|-0-------|
A|-2-2---|-2-2-----|-3-3---|-3-3-----|-2-2---|-2-2-----|-------|---------|
E|-0-0---|-0-0-----|-------|---------|-3-3---|-3-3-----|-------|---------|
   Em                C                 G                 D
   Can I see...
e|-0-0-0-0-|-0-0-0-0-|-0-0-0-0-|-0-0-0-0-|-3-3-3-3-|-3-3-3-3-|-2-2-2-2-|-2-2-2-2-|
B|-0-0-0-0-|-0-0-0-0-|-1-1-1-1-|-1-1-1-1-|-0-0-0-0-|-0-0-0-0-|-3-3-3-3-|-3-3-3-3-|
G|-0-0-0-0-|-0-0-0-0-|-0-0-0-0-|-0-0-0-0-|-0-0-0-0-|-0-0-0-0-|-2-2-2-2-|-2-2-2-2-|
D|-2-2-2-2-|-2-2-2-2-|-2-2-2-2-|-2-2-2-2-|-0-0-0-0-|-0-0-0-0-|-0-0-0-0-|-0-0-0-0-|
A|-2-2-2-2-|-2-2-2-2-|-3-3-3-3-|-3-3-3-3-|-2-2-2-2-|-2-2-2-2-|---------|---------|
E|-0-0-0-0-|-0-0-0-0-|---------|---------|-3-3-3-3-|-3-3-3-3-|---------|---------|
   Em                  C                   G                   D
  I want...
e|---|-----|-0-0-0-0-|-0-0-0-0-|-3-3-3-3-|-3-3-3-3-|-2-2-2-2-|-2-2-2-2-|-3-2-|-0---|
B|---|---0-|-1-1-1-1-|-1-1-1-1-|-0-0-0-0-|-0-0-0-0-|-3-3-3-3-|-3-3-3-3-|-3---|---3-|
G|-0-|-0---|-0-0-0-0-|-0-0-0-0-|-0-0-0-0-|-0-0-0-0-|-2-2-2-2-|-2-2-2-2-|-0---|-----|
D|-2-|-2---|-2-2-2-2-|-2-2-2-2-|-0-0-0-0-|-0-0-0-0-|-0-0-0-0-|-0-0-0-0-|-----|-----|
A|---|-----|-3-3-3-3-|-3-3-3-3-|-2-2-2-2-|-2-2-2-2-|---------|---------|-----|-----|
E|---|-----|---------|---------|-3-3-3-3-|-3-3-3-3-|---------|---------|-----|-----|
             C                   G                   D

[Outro]
             Let the water...
e|-0-0-|-0-0-|-0-0-|-0-0-|-3-3-|-3-3-|-3-3-|-2-2-|
B|-0-0-|-0-0-|-1-1-|-1-1-|-0-0-|-0-0-|-0-0-|-3-3-|
G|-0-0-|-0-0-|-0-0-|-0-0-|-0-0-|-0-0-|-0-0-|-2-2-|(x2)
D|-2-2-|-2-2-|-2-2-|-2-2-|-0-0-|-0-0-|-0-0-|-0-0-|
A|-2-2-|-2-2-|-3-3-|-3-3-|-2-2-|-2-2-|-2-2-|-----|
E|-0-0-|-0-0-|-----|-----|-3-3-|-3-3-|-3-3-|-----|
  Em           C           G                D
e|-0-0-|-0-0-|-0-0-|-0-0-|-3-|
B|-0-0-|-0-0-|-1-1-|-1-1-|-0-|
G|-0-0-|-0-0-|-0-0-|-0-0-|-0-|
D|-2-2-|-2-2-|-2-2-|-2-2-|-0-|
A|-2-2-|-2-2-|-3-3-|-3-3-|-2-|
E|-0-0-|-0-0-|-----|-----|-3-|
  Em           C           G
Suggest correction
Give kudos to tab author, rate the tab!
1 2 3 4 5
comments
print report bad tab
guest
You may want to rate the tab now too:
select rating
Wanna post a correction for this tab? Suggest correction