Oops, an error
Loading. Please wait.

Hear Me Now tab

2,120 views 15 this week
1 commentread comment
1 2 3 4 5
x 5
add to favorites
×
Save as Personal and add changes to this tab that will be seen only by you. Learn more ›
×
You can save this tab as Personal to edit and correct it or add notes. All changes will be seen only by you. Learn more »
launch autoscroll
font size
0
reset
how to read this tab
guitar tuner
edit
Autoscroll
slow
fast
+/-
esc
set tempo
stop
Author
Difficulty
Hear Me Now by Tyler Joseph
Album: No Phun Intended
(listen to song for rhythm)
Email me @: emarco72@gmail.com for edits


Legend:
(/) Slide Up
(\) Slide Down
(h) Hammer On
(p) Pull Off
(b) Bend
(r) Release
(v) Vibrato


Guitar line only starts at 2:05:

E|------------|
B|------------|
G|--11b14b11--|
D|------------|
A|------------|
E|------------|

2:15:

E|------------------------------------------------------------------------------------|
B|-------------------14--16-------------------14--16-------------------14--16--16b16--|
G|---------12h14h16-----------------12h14h16-----------------12h14h16-----------------|
D|--12h14--------------------12h14--------------------12h14---------------------------|
A|------------------------------------------------------------------------------------|
E|------------------------------------------------------------------------------------|

2:24

E|----------------------------------------------------------------------------------------|
B|-------------------14--16-------------------14--16-------------------14--16--16b16--14--|
G|---------12h14h16-----------------12h14h16-----------------12h14h16---------------------|
D|--12h14--------------------12h14--------------------12h14-------------------------------|
A|----------------------------------------------------------------------------------------|
E|----------------------------------------------------------------------------------------|

2:34:

E|------------------------------------------------------------------------------------|
B|-------------------14--16-------------------14--16-------------------14--16--16b16--|
G|---------12h14h16-----------------12h14h16-----------------12h14h16-----------------|
D|--12h14--------------------12h14--------------------12h14---------------------------|
A|------------------------------------------------------------------------------------|
E|------------------------------------------------------------------------------------|

2:44:

E|----------------------------------------------------------------------------------------|
B|-------------------14--16-------------------14--16-------------------14--16--16b16--14--|
G|---------12h14h16-----------------12h14h16-----------------12h14h16---------------------|
D|--12h14--------------------12h14--------------------12h14-------------------------------|
A|----------------------------------------------------------------------------------------|
E|----------------------------------------------------------------------------------------|


2:53:

E|------------|
B|------------|
G|--11b14b11--|
D|------------|
A|------------|
E|------------|
                
The End                                 

            
            
Suggest correction
Creating personal tab
Creating personal tab
You can edit any tab online and save it as your Personal.

You can edit, replace or remove any tab part or add personal notes – all changes will be seen only by you.

Personal tabs can be accessed anytime from any device, even offline.
Learn more »
comments
print report bad tab
1 comment total.
0 reply
ILuvPieXD14 139 Jul 23, 2016 08:36 PM

You are half a step high but if you fix that I think you are guud

guest
You may want to rate the tab now too:
select rating
Wanna post a correction for this tab? Suggest correction