Oops, an error
Loading. Please wait.

By My Side tab

2,033 views 1 this week
no commentswrite comment
1 2 3 4 5
2 more votes to show rating
add to favorites
×
Save as Personal and add changes to this tab that will be seen only by you. Learn more ›
×
You can save this tab as Personal to edit and correct it or add notes. All changes will be seen only by you. Learn more »
launch autoscroll
font size
0
reset
how to read this tab
guitar tuner
edit
Autoscroll
slow
fast
+/-
esc
set tempo
stop
Author
Difficulty
For the 100th time or more that you've seen this comment....well, it's my first tab!
(also I believe the first Tab for "By My Side")

Note:

Many others had mentioned that "Kiss Goodnight" and "By My Side" sound similar and it's true!

Unlike many other tabs, what I'll do is show you what to play. Other then that, just
listen to the song and then play along. By doing so, it feels more natural and you get
memorize it better.

The credits go to megannnx for the chords! Megannx had the right chords, but the wrong
pitch for By My Side, so I just found the right pitch and started experimenting with the
chords to figure out the tab for "By My Side".

Links:

Tyler Shaw's Official Music Video:

http://www.youtube.com/watch?v=Wq9saQM225Q

Tyler Shaw's Official Lyric Video:

http://www.youtube.com/watch?v=zf4uRv5cKJ0

Tyler Shaw Kiss Goodnight Guitar Tab:

http://tabs.ultimate-guitar.com/t/tyler_shaw/kiss_goodnight_crd.htm

         ****CAPO 5***


Well the chords are the exact same as Tyler Shaw's "Kiss Goodnight".
The Chords are(in order):

     Cadd9     G       Em7             Dadd11/F#

E------3-------3---------3-----------------3-|
B------3-------3---------3-----------------3-|
G------0-------0---------0-----------------2-|
D------2-------0---------2-----------------0-|
A------3-------2---------2-----------------0-|
E------0-------3---------0-----------------2-|


Here's what I got:

Intro:

              Cadd9                    G                       Em7
        ________|_________    _________|__________    __________|__________
       |                  |  |                    |  |                     |
       V                  V  V                    V  V                     V
E------3--------3---------3-----3--------3--------3-----3--------3---------3-|
B---------3------------3-----------3-----------3-----------3------------3----|
G------------0------------------------0-----------------------0--------------|
D----------------------------------------------------------------------------|
A---3------------------------------------------------------------------------|
E----------------------------3-----------------------0-----------------------|

       Dadd11/F#
     _____|_____
    |           |
    V           V
E------3----------|
B---------3-----3-|
G------------2----|
D-----------------|
A-----------------|
E---2-------------|





Main:



           Cadd9                      G                       Em7
     ________|_________      _________|__________    __________|_________
    |                  |    |                    |  |                    |
    V                  V    V                    V  V                    V
E------3--------3--------3-----3--------3--------3-----3--------3--------3-|
B---------3--------3--------------3--------3--------------3--------3-------|
G------------0--------0--------------0--------0--------------0--------0----|
D--------------------------------------------------------------------------|
A---3----------------------------------------------------------------------|
E---------------------------3-----------------------0----------------------|



           Dadd11/F#
     __________|_________
    |                    |
    V                    V
E------3--------3--------3-|
B---------3--------3-------|
G------------2--------2----|
D--------------------------|
A--------------------------|
E---2----------------------|


That's it! I believe the song will get different around the chorus but still, I hope I
got the ball rolling for the song "By My Side" on ultimate-guitar!

It's really easy, maybe hard at first for some people, but in the end it will
be very easy for everyone!

Once again, big special thanks to Megannnx for the chords!!! =)

            
            
Suggest correction
Creating personal tab
Creating personal tab
You can edit any tab online and save it as your Personal.

You can edit, replace or remove any tab part or add personal notes – all changes will be seen only by you.

Personal tabs can be accessed anytime from any device, even offline.
Learn more »
Give kudos to tab author, rate the tab!
1 2 3 4 5
comments
print report bad tab
guest
You may want to rate the tab now too:
select rating
Wanna post a correction for this tab? Suggest correction