Oops, an error
Loading. Please wait.

Boredom tab

1,630 views 180 this week
no commentswrite comment
1 2 3 4 5
x 6
add to favorites
×
Save as Personal and add changes to this tab that will be seen only by you. Learn more ›
×
You can save this tab as Personal to edit and correct it or add notes. All changes will be seen only by you. Learn more »
launch autoscroll
font size
0
reset
how to read this tab
guitar tuner
edit
Autoscroll
slow
fast
+/-
esc
set tempo
stop
Note: Tune The E string down to a C

[Intro]
When you're having fun, when you're having fun, out the window (doves go)

e|--------------------------------------------------------------------3--3-3---3--------|
B|--9---9---8--8--8---8-----7--7--6-6-6--6------5--5--4-4-4--4--------4--4-4---3--------|
G|--10--10--10-10-10--8-----8--8--8-8-8--6------6--6--6-6-6--4--------5--5-5---3--------|
D|--11--11--11-11-11--10----9--9--9-9-9--8------7--7--7-7-7--6--------6--6-6---5--------|
A|--------------------11-----------------9-------------------7-----------------6--------|
C|--------------------8------------------6-------------------4-----------------3--------|

[Chorus]
Find some time, find some time to do something (x3) Woah-oa-oa-oah
Cause boredom got a new best friend (x3) 

e|------------------------(x3)-----------------------------------3----------------------|
B|--9---9---8--8--8---8---(x3)-----------------------8---8--8----3----------------------|
G|--10--10--10-10-10--8---(x3)-----------------------8---8--8----3----------------------|
D|--11--11--11-11-11--10--(x3)-----------------------10--10-10---5----------------------|
A|--------------------11--(x3)-----------------------11--11-11---6----------------------|
C|--------------------8---(x3)------------------8-10-10--10-10---3----------------------|

[Verse]
Boredom, boredom, boredom, boredom boredom, boredom, boredom, boredom 
Boy, my bedroom floor is a ceral burial, I'm serious
I ate em all, dry boxes, bodies, yeah I caught em
If were talkin bout real meals, ask my stomach, he aint saw em
I've been in this f****in room so long
My eyeballs are turning to dry wall 
My friends suck, f*** em, I'm over em 
Hi y'all, y'all aint hit me all day 
What the f*** is the problem, is it me 
Cause I'm not solved, I'm bored 

e|--------------------------------------------------------------------3--3-3---3--------|
B|--9---9---8--8--8---8-----7--7--6-6-6--6------5--5--4-4-4--4--------4--4-4---3--------|
G|--10--10--10-10-10--8-----8--8--8-8-8--6------6--6--6-6-6--4--------5--5-5---3--------|
D|--11--11--11-11-11--10----9--9--9-9-9--8------7--7--7-7-7--6--------6--6-6---5--------|
A|--------------------11-----------------9-------------------7-----------------6--------|
C|--------------------8------------------6-------------------4-----------------3--------|

[Chorus]
Find some time, find some time to do something (x3)

e|------------------------(x3)-----------------------------------3----------------------|
B|--9---9---8--8--8---8---(x3)-----------------------8---8--8----3----------------------|
G|--10--10--10-10-10--8---(x3)-----------------------8---8--8----3----------------------|
D|--11--11--11-11-11--10--(x3)-----------------------10--10-10---5----------------------|
A|--------------------11--(x3)-----------------------11--11-11---6----------------------|
C|--------------------8---(x3)------------------8-10-10--10-10---3----------------------|

[Verse]
Bored and getting desperate as hell
Cellular not amusing and I hope someone will
Message me with some plans that are amusing as well
Cause I haven’t seen the exit of these walls since before this morning
Morning, morning, morning, morning
Got some cars I can handle but nowhere for performance
My stomach angry and yellin, I need some food I could order
But I hate eating solo
Need someone, we can loiter in parking lots
And sunsets at the border, yeah
Ringy dingy dong, I can't be alone
I been starting to feel like I don't know anyone
So now I'm staring at my ceiling f***** going
Like I have no idea where I'm going

e|------------------------(x3)-----------------------------------3----------------------|
B|--9---9---8--8--8---8---(x3)-----------------------8---8--8----3----------------------|
G|--10--10--10-10-10--8---(x3)-----------------------8---8--8----3----------------------|
D|--11--11--11-11-11--10--(x3)-----------------------10--10-10---5----------------------|
A|--------------------11--(x3)-----------------------11--11-11---6----------------------|
C|--------------------8---(x3)------------------8-10-10--10-10---3----------------------|

[Chorus]
Find some time, find some time to do something (x3)
Cause boredom got a new best friend
e|------------------------(x3)-----------------------------------3----------------------|
B|--9---9---8--8--8---8---(x3)-----------------------8---8--8----3----------------------|
G|--10--10--10-10-10--8---(x3)-----------------------8---8--8----3----------------------|
D|--11--11--11-11-11--10--(x3)-----------------------10--10-10---5----------------------|
A|--------------------11--(x3)-----------------------11--11-11---6----------------------|
C|--------------------8---(x3)------------------8-10-10--10-10---3----------------------|




************************************

| (x3) repeat chord/ lyrics 3 times 

************************************

            
            
Suggest correction
Creating personal tab
Creating personal tab
You can edit any tab online and save it as your Personal.

You can edit, replace or remove any tab part or add personal notes – all changes will be seen only by you.

Personal tabs can be accessed anytime from any device, even offline.
Learn more »
comments
print report bad tab
guest
You may want to rate the tab now too:
select rating
Wanna post a correction for this tab? Suggest correction