Oops, an error
Loading. Please wait.

Shake It Off Chords

3,440 views 6 this week
no commentswrite comment
1 2 3 4 5
1 last vote to show rating
add to favorites
launch autoscroll
font size
0
reset
transpose
0
reset
display chords
guitar tuner
×
Best way to learn
"Shake It Off"
Autoscroll
slow
fast
+/-
esc
set tempo
stop
Author
Difficulty
Capo
  follow
novice
5th fret
-------------------------------------------------------------------------------
                             SHAKE IT OFF - Tyler Ward
-------------------------------------------------------------------------------
Tabbed by: Riley Fitzsimmons

Tuning: Standard

You can use a capo on 5 or no capo, the chords are for no capo. If you want to
play the whole 2nd guitar part with capo 5 for the whole song the chord progression
is Am, C G.


Intro tab: (no capo)
    
e|---3-----3-----3-----3-----3---3---1-----1-----0-----1-----0---0---|
B|-1---1-1---1-1---1-1---1-1---1---1---1-1---1-1---1-1---1-1---1-----|
G|-------------------------------------------------------------------|    x2
D|-------------------------------------------------------------------|
A|-------------------------------------------------------------------|
E|-------------------------------------------------------------------|

2nd guitar part: (capo 5) **Not relative to capo. 
e|---8-----10-----12-----10-----8--8----10-----12-----10-----8---8-8-|
B|-8-----8------8-----8------8----8----8----8-------8------8---8--8--|
G|-----5------5-----5----------------5----5-------5------5-----------|   
D|-------------------------------------------------------------------|
A|-------------------------------------------------------------------|
E|-------------------------------------------------------------------|

These are played at the chorus too.


Intro chords: Dm F C


Verse 1:              
           Dm
I stay out too late
                  F 
Got nothing on my brain
                   C
That's what people say                 

That's what people say


                 Dm
I go on too many dates
                     F
But I can't make 'em stay
                            C
And that's what people say, mmm                     

That's what people say, mmm


           Dm
But I keep movin' 
                      F
Can't stop won't stop groovin 
                     C
It's like I got this music in my mind
       
Saying it's gonna be alright


Chorus:
          Dm
And the players gonna play, play, play, play, play
        F
And the haters gonna hate, hate, hate, hate, hate baby
C              
I'm just gonna shake, shake, shake, shake, shake

Shake it off, shake it off

      Dm
Heart breakers gonna break, break, break, break, break
        F
And the fakers gonna fake, fake, fake, fake, fake baby
C
I'm just gonna shake, shake, shake, shake, shake

Shake it off, shake it off

Shake it off, shake it off

Shake it off, shake it off


Verse 2:
                  Dm
I'm dancing on my own 
                            F
I'll make the moves up as I go 
                           C
And that's what they don't know

That's what they don't know 


           Dm
But I keep movin' 
                      F
Can't stop won't stop groovin'
                     C
It's like I got this music in my mind
       C
Saying it's gonna be alright


Chorus:
          Dm
And the players gonna play, play, play, play, play
        F
And the haters gonna hate, hate, hate, hate, hate baby
C              
I'm just gonna shake, shake, shake, shake, shake

Shake it off, shake it off


      Dm
Heart breakers gonna break, break, break, break, break
        F
And the fakers gonna fake, fake, fake, fake, fake baby
C
I'm just gonna shake, shake, shake, shake, shake

Shake it off, shake it off 


***Kingbach rap... (no chords)


Shake it off, shake it off 

Shake it off, shake it off 


Chorus:
          C
And the players gonna play, play, play, play, play
        
And the haters gonna hate, hate, hate, hate, hate baby
Dm             
I'm just gonna shake, shake, shake, shake, shake

Shake it off, shake it off
Suggest correction
Give kudos to tab author, rate the tab!
1 2 3 4 5
comments
print report bad tab
guest
You may want to rate the tab now too:
select rating
Wanna post a correction for this tab? Suggest correction