Oops, an error
Loading. Please wait.

Christan Wonan tab

2,259 views 3 this week
1 commentread comment
1 2 3 4 5
3 more votes to show rating
add to favorites
×
Save as Personal and add changes to this tab that will be seen only by you. Learn more ›
×
You can save this tab as Personal to edit and correct it or add notes. All changes will be seen only by you. Learn more »
launch autoscroll
font size
0
reset
how to read this tab
guitar tuner
edit
Autoscroll
slow
fast
+/-
esc
set tempo
stop
christian woman
by: type O negative
played in B tuning

tabbed by pspace
----------------------------------------------------------------------------
/ slide
P palm mute
~ pick slide
----------------------------------------------------------------------------

Intro
|---------------------------------|
|---------------------------------|
|---------------------------------|
|--5--7--2----5---4---2-----------|  {repeat once}
|--5--7--2----5---4---2-----------|
|--5--7--2----5---4---2-----------|

Verse
   PPPPPPPPPPPPPPPPPPPPPPPPPPPPPPPP
|----------------------------------|
|----------------------------------|
|----------------------------------|   {repeat three times}
|--55557777222222225555000222222222
|--55557777222222225555000222222222
|--55557777222222225555000222222222


   PPPPPPPPPPPPPPPPPPPPP-let ring--
|----------------------------------|                         *
|----------------------------------|{palm mute one open then slowly let ring}
|----------------------------------|
|--555577772222222255550002--------|
|--555577772222222255550002--------|
|--555577772222222255550002--------|
                        *

chorus #1

|----------------------------------|
|----------------------------------|
|----------------------------------|
|--5--7--2-----5---4---2-----------|  {repeat}
|--5--7--2-----5---4---2-----------|
|--5--7--2-----5---4---2-----------|

repeat verse

chorus #2
|------------------------------------|
|------------------------------------|
|------------------------------------|   {repeat}
|--5--7--2-----5---0---2-------------|
|--5--7--2-----5---0---2-------------|
|--5--7--2-----5---0---2-------------|

{keyboard break}
repeat chorus #1 twice
then chorus #2 four times

|----0----------0----0---------0-----0---------0-----0--------0--|
|-------2-3-2-----------2-3-2-----------2-3-2----------2-3-2-----|
|------2------2--------2-----2---------2-----2--------2-----2----|
|--7---------------4---------------5---------------0-------------|{repeat
|----------------------------------------------------------------|  16 times}
|----------------------------------------------------------------|

{arter you repeat it the second time there is a harmonic part that I don't know!}

Solo {after the eleventh repeat of the above tab}

|-------------------------------------|
|-------------------------------------|
|-------------------------------------|
|--3/14-----12-11-12-11---------------|
|-----------------------12------------|
|-------------------------------------|

|--------------------------------------|
|--------------------------------------|
|--------------------------------------|
|--3/14-----12-11-12-11----------------|
|----------------------10--------------| bend whole step twice
|--------------------------------------|


|--------------------------------------------|
|------17-17--15-15---17-17-15-14-15-14------|
|--9/14-----14-----14-------------------14/9-|
|--------------------------------------------|
|--------------------------------------------|
|--------------------------------------------|


|--------------------------------------------------|
|------17-17--15-15---17-17-15-14-15-14------------|
|--9/14-----14-----14-------------------14/9--9/14-|
|--------------------------------------------------|
|--------------------------------------------------|
|--------------------------------------------------|

{jesus christ looks like me}
        PP   PP     P           PP h
|----------------------------------------------------|
|----------------------------------------------------|
|----------------------------------------------------|
|7---------12----12---10-10-10-----------------------|
|7---------12----12---10-10-10---------8-------------|
|7--*---00-12-00-12-0-10-10-10--0010h12--------------|
    *  pick slide


   PP    PP   P
|-----------------------------------------------|
|-----------------------------------------------|
|-----------------------------------------------|
|-----12----12---10--10-10----------------------|
|-----12----12---10--10-10----------------------|
|--00-12-00-12-0-10--10-10--10-bend half step---|

   PP   PP     P
|-------------------------------------------------|
|-------------------------------------------------|
|-------------------------------------------------|
|-----12----12---10--10-10------------------------|
|-----12----12---10--10-10--------8-7-5-3--8-88-3-|
|--00-12-00-12-0-10--10-10---0-10--0-0---0--0-----|

{repeat the above seven times

            
            
Suggest correction
Creating personal tab
Creating personal tab
You can edit any tab online and save it as your Personal.

You can edit, replace or remove any tab part or add personal notes – all changes will be seen only by you.

Personal tabs can be accessed anytime from any device, even offline.
Learn more »
Give kudos to tab author, rate the tab!
1 2 3 4 5
comments
print report bad tab
1 comment total.
0 reply
PSPACE 10 Sep 10, 2005 08:00 PM

This is to correct the part right before the solo. this one is right, the other is almost unplayable! P.S. I was tired when I first tabbed this. I can spell I promise. The song is called Christian woman!

|--0-----0--0-----0--0-----0--0-----0-
|----232------232------232------232---
|-2-2---2----2---2--0-2---2----2---2--
|----------4-----------------0-------- {still repeated 16 times}
|-------------------------------------
|-------------------------------------
|

guest
Wanna post a correction for this tab? Suggest correction