Oops, an error
Loading. Please wait.
We have an official I Dont Wanna Be Me tab made by UG professional guitarists. Check out the tab »
×
6,025 views 1 this week
no commentswrite comment
1 2 3 4 5
2 more votes to show rating
add to favorites
×
Save as Personal and add changes to this tab that will be seen only by you. Learn more ›
×
You can save this tab as Personal to edit and correct it or add notes. All changes will be seen only by you. Learn more »
launch autoscroll
font size
0
reset
how to read this tab
guitar tuner
backing track
0:00
0:00
edit
Autoscroll
slow
fast
+/-
esc
set tempo
stop
-------------------------------------------------------------------------------
I Don't Wanna Be Me – Type O Negative
-------------------------------------------------------------------------------
Tabbed by:  Greg T. (chickenfrmheck)

Tuning:  drop db (Db Ab Db Gb Bb eb low to high)

I did this so you don't have to murder your guitar and drop A to play it.  Sorry I don't
the quiet part, and the solo is fairly quiet to begin with, plus mine has an
for the new album recorded over the solo, so i just put in the solo scale.  Enjoy.

          |                      very beginning
          |  preferably feedback,
          V  but that will suffice
eb|-----(12)------------------------------------------------------------------|
Bb|---------------------------------------------------------------------------|
Gb|---------------------------------------------------------------------------|
Db|---------77777777777777777777777777777777----------------------------------|
Ab|---------77777777777777777777777777777777----------------------------------|
Db|-12\-----77777777777777777777777777777777----------------------------------|
pm          ................................

main rhythm riff/progression
           A        + B = riff A                      C
e|------------------|-----------------|--------------------------------------|
B|------------------|-----------------|--------------------------------------|
G|------------------|-----------------|->->----------------------------------|
D|-33333333-00000000|77777777-55555555|-7-7-A+C= riff B----------------------|
A|-33333333-00000000|77777777-55555555|-7-7----------------------------------|
E|-33333333-00000000|77777777-55555555|-7-7----------------------------------|
pm ........ ........ ........ ........
Remove palm mutes and play riff A to get the chorus riff^

lead riff
e|---------------------------------------------------------------------------|
B|---------------------------------------------------------------------------|
G|-9-5~-9-5-9-5-4-4h5-rest-9-5-9-5-4-4h5p0-----------------------------------|
D|---------------------------------------------------------------------------|
A|---------------------------------------------------------------------------|
E|---------------------------------------------------------------------------|

solo scale and octave, all i can make out of the solo is that it begins on a trill
the 17th and 19th frets on the A string... Just use the scale to improvise on either octave,
sounds ok to me.  Sorry I couldn't tab the solo, but I'm not very good, and the rest of 
explanation is above.
e|----------------------5-8--------------------------------17-20-------------|
B|------------------5-8------------------------------17-20-------------------|
G|--------------5-7----------------------------17-19-------------------------|
D|----------5-7--------------------------17-19-------------------------------|
A|------5-7------------------------17-19-------------------------------------|
E|-7-10----------------------19-22-------------------------------------------|
| >  accent note
| /  slide up
| \  slide down
| h  hammer-on
| p  pull-off
| ~  hold note
|(#) natural harmonic
Suggest correction
Creating personal tab
Creating personal tab
You can edit any tab online and save it as your Personal.

You can edit, replace or remove any tab part or add personal notes – all changes will be seen only by you.

Personal tabs can be accessed anytime from any device, even offline.
Learn more »
Give kudos to tab author, rate the tab!
1 2 3 4 5
comments
print report bad tab
guest
You may want to rate the tab now too:
select rating
Wanna post a correction for this tab? Suggest correction