Oops, an error
Loading. Please wait.

I Know Youre Fucking Someone Else tab

version 2
version 2

Whole song

1,407 views 3 this week
no commentswrite comment
1 2 3 4 5
2 more votes to show rating
add to favorites
×
Save as Personal and add changes to this tab that will be seen only by you. Learn more ›
×
You can save this tab as Personal to edit and correct it or add notes. All changes will be seen only by you. Learn more »
launch autoscroll
font size
0
reset
how to read this tab
guitar tuner
edit
Autoscroll
slow
fast
+/-
esc
set tempo
stop
Artist:Type 0 Negative.
Song:I Know You're Fucking Someone Else.
Tuning:B.E.A.D.F#.B.
Tab:Lopez017.

(Heavy distortion at the beginning of the song)

      "Trust and you'll be trusted..."  (6 times)
||-------||------------------------------------||
||-------||------------------------------------||
||-(11)--||----------11-11--11-9---------------||
||--(9)--||-11-11-11--9--9---9-7--9--9-8-9--9--||
||-------||--9--9--9--------------7--7-6-7--7--||
||-------||------------------------------------||

                        "Ooh"                       (2 times)
||-------------------------|-------------------------------||
||-------------------------|-------------------------------||
||-------------------------|-------------------------------||
||-------7------9-9--9-9-9-|---------7-----9-9--9-7-7-6-6--||
||-9-9-9-5-7-7--7-7--7-0-7-|--9-9--9-5-7-7-7-7--7-5-5-4-4--||
||-7-7-7---5-5-------------|--7-7--7---5-5-----------------||


"Do you believe in forever?..."   (4 times)
||------------------------------------||
||------------------------------------||
||----------11-11--11-9---------------||
||-11-11-11--9--9---9-7--9--9-8-9--9--||
||--9--9--9--------------7--7-6-7--7--||
||------------------------------------||

Bridge
||-------------------------------------------------------||
||-------------------------------------------------------||
||-------------------------------------------------------||
||-9--8--7--6--6/9--8--7------9--8--7--6--5--6--7--2-----||
||-9--8--7--6--6/9--8--7--X---9--8--7--6--5--6--7--2-----||
||-7--6--5--4--4/7--6--5--X--/7--6--5--4--3--4--5--0-----||

||-5^--5-5-55775533220----------------------789/-|
||----------------------------------------78-----|
||----------------------------------778899-------|
||----------------------------778899-------------|
||----------------------778899-------------------|
||-----------------------------------------------|
|-14-14-14-12-12-12-14-15-16-17-21-19-17-15-(random p/o)-/18~~~--|
||---------------------------------------------------------------|
||---------------------------------------------------------------|
||---------------------------------------------------------------|
||---------------------------------------------------------------|
||---------------------------------------------------------------|
                         "Ooh"                       (2 times)
||-------------------------|-------------------------------||
||-------------------------|-------------------------------||
||-------------------------|-------------------------------||
||-------7------9-9--9-9-9-|---------7-----9-9--9-7-7-6-6--||
||-9-9-9-5-7-7--7-7--7-0-7-|--9-9--9-5-7-7-7-7--7-5-5-4-4--||
||-7-7-7---5-5-------------|--7-7--7---5-5-----------------||

Interlude
(12-string accoustic de-tuned as above)          (6 times)
||-------------------------------------------4-----5-----||
||-----12---12-------9---9-------9---------4-----2---2---||
||-8-8----8--8-8-7-7---7---7-6-6---6---6-4-----2-------2-||
||-----------------------------------6-------------------||
||-------------------------------------------------------||
||-------------------------------------------------------||
Dist. Guitar                        (2nd time only)
||---------------------------------||----------||
||---------------------------------||----------||
||---------------------------------||----------||
||-6--7--/9--8--7------------------||----------||
||-4--5--/7--6--5--9-8-7--6--5--4--||----------||
||-----------------7-6-5--4--3--2--||--/-14-\--||

Guitar break, intro to 2nd half of song (8 times/let ring)     
"Don't think I don't know what you're doing,       
you stupid twat."

||---------------------------------||
||---------------------------------||
||-----4-------4-------4-------4---||
||-----------0---0-0-2-------------||
||-2-------2--------------0--0---0-||
||---------------------------------||

"You went to L'Amour, Saturday night..." (4 times)
||------7-------7-------7-------7---||
||----7---7---7---7---7---7---7---7-||
||--4-------4-------4-------4-------||
||----------------------------------||
||----------------------------------||
||----------------------------------||

"Slut"                       
"Whore"                       
 "Cunt"                    
pm
||---------------------------|------------||
||---------------------------|------------||
||--6--6----2--2--2----0-2-0-|-6-------2--||
||--4--4--4-0--0--0--2-------|-4---4---0--||
||--------2------------------|-----2------||
||---------------------------|------------||
"I know you're fucking someone else"
||---------|---------------------------------||
||---------|---------------------------------||
||---------|-----4-------4-------4-------4---||
||-7-9-9---|-----------0---0-0-2-------------||
||-5-7-7-0-|-2-------2--------------0--0---0-||
||---------|---------------------------------||

"You had cock on your mind, and cum on your breath..."                             (4 times)
||------7-------7-------7-------7---||
||----7---7---7---7---7---7---7---7-||
||--4-------4-------4-------4-------||
||----------------------------------||
||----------------------------------||
||----------------------------------||

"So you sit home, drinking alone..."                    
 p.m....|
||------------------------------------------------------------||
||------------------------------------------------------------||
||--------------------------------------------------9------11-||
||-------------------------------11-11-11-11-10---9-----11----||
||-11--11-11--X-X-X-6--X-6-6-6-9--9--9--9--9--8-7-----9-------||
||--9---9--9--X-X-X-7--X-7-7-7-7------------------------------||

"You, you make me hate myself!"                  (applause)
||---------------------------------||-----------||
||---------------------------------||-----------||
||-----4-------4-------4-------4---||--------4--||
||-----------0---0-0-2-------------||--7-9---4--||
||-2-------2--------------0--0---0-||--5-7-0-2--||
||---------------------------------||-----------||


            
            
Suggest correction
Creating personal tab
Creating personal tab
You can edit any tab online and save it as your Personal.

You can edit, replace or remove any tab part or add personal notes – all changes will be seen only by you.

Personal tabs can be accessed anytime from any device, even offline.
Learn more »
Give kudos to tab author, rate the tab!
1 2 3 4 5
comments
print report bad tab
guest
You may want to rate the tab now too:
select rating
Wanna post a correction for this tab? Suggest correction