Oops, an error
Loading. Please wait.

Profit Of Doom bass

1,311 views 1 this week
no commentswrite comment
1 2 3 4 5
2 more votes to show rating
add to favorites
×
Save as Personal and add changes to this tab that will be seen only by you. Learn more ›
×
You can save this tab as Personal to edit and correct it or add notes. All changes will be seen only by you. Learn more »
launch autoscroll
font size
0
reset
guitar tuner
edit
Autoscroll
slow
fast
+/-
esc
set tempo
stop
Author
Difficulty
My favorite song by Type O Negative, took me a long time to figure this one out, the 
bass is mainly just root notes to the guitar tab.
Any corrections or comments are more than welcome.


I.  INTRO (repeat 4 times):

G ||---------------------------------------------||
D ||---------------------15--/21-\15-------------||
A ||------------------14-------------14----------||
E ||---------------13-------------------13-------||
B ||-\-0--/6--/12--------------------------12\-6-||


G ||-------------------------------||
D ||-------------------------------||
A ||-----------------------------\-||
E ||-----7---7-------3---3---3---\-||
B ||-0-----------------------------||


VERSE INTRO:
                                  "Goodbye cruel world!"
G ||-------------------------------------------------------||
D ||-------------------------------------------4^5^4^5^4^5-||
A ||---------5-------------------------5-------------------||
E ||--0---/6---6---5+-----3^5^3-0---/6---6---5-------------||
B ||-------------------------------------------------------||

                                  "whooooaaaaa!"
G ||-------------------------------------------------||
D ||-------------------------------------------------||
A ||---------5---------------------------------------||
E ||-0---/6---6---5+-(5)-3--0---6--6--6--6--6--6--6--||
B ||-------------------------------------------------||


VERSE:
"Of this shape..."
"Against the sun..."
"Of ten paws..."
"On your head..."

G ||------------------------------------------------------------||
D ||------------------------------------------------------------||
A ||--7---------------------------------------------------------||
E ||----7--0--6+-(6)--6^7^6^7^6^7---X\--6-6-6-5--5--------------||
B ||-------------------------------------------------8---8--7-6-||

Repeat VERSE INTRO

Repeat VERSE

II. Second Part

a) Intro/CHORUS:

G ||------------------------------------------------------||
D ||----4-----2-4-------4--2-4-----4---2-4-------4----2-4-||
A ||---------------0-0---0--------------------------------||
E ||-2-----2--------------------0----0--------------------||
B ||----------------------------------------3-3-----3-----||

b)  Verse:

"April 2029...
"The End my friend..."
G ||---------------------------------------------------------------||
D ||---------------------------------------------------------------||
A ||---------------------------------------------------------------||
E ||-2-2-2-2-2-2-2-5-5-5-5-5-5-5-5-5-0-0-0-0-0-0-0-----------------||
B ||-----------------------------------------------3-3-3-3-3-3-3-3-||

"When the moon becomes red..."

G ||-----------------------------||
D ||-----------------------------||
A ||-----------------------------||
E ||-2~~~~~5~~~~~~0~~~~~~--------||
B ||---------------------3~~~~~~-||

"It's a Friday 13th..."
G ||---------------------------------------------------------------||
D ||---------------------------------------------------------------||
A ||---------------------------------------------------------------||
E ||-2-2-2-2-2-2-2-5-5-5-5-5-5-5-5-5-0-0-0-0-0-0-0-----------------||
B ||-----------------------------------------------3-3-3-3-3-3-3-3-||



   "I           am                 a prophet of doom"
G ||------------------------------------------------------||
D ||----4-----2-4-------4--2-4-----4---2-4-------4----2-4-||
A ||---------------0-0---0--------------------------------||
E ||-2-----2--------------------0----0--------------------||
B ||----------------------------------------3-3-----3-----||


"So now the star has fallen..."
"The seventh seal..."
G ||-----------------------------------------------------------------||
D ||-----------------------------------------------------------------||
A||------------------------------------------------------------------||
E ||-2-2-2-2-2-2-2-5-5-5-5-5-5-5-5-5-0-0-0-0-0-0-0-------------------||
B ||-----------------------------------------------3-3-3-3-3-3-3-3---||

"Are you paranoid?..."
              fdbk
G ||-------------------------------||
D||--------------------------------||
A ||-------------------------------||
E ||-2~~~~~5~~~~~~0~~~~~~----------||
B ||---------------------3~~~~~~---||

"This stone's called Apophis..."
G ||---------------------------------------------------------------||
D ||---------------------------------------------------------------||
A ||---------------------------------------------------------------||
E ||-2-2-2-2-2-2-2-5-5-5-5-5-5-5-5-5-0-0-0-0-0-0-0-----------------||
B ||-----------------------------------------------3-3-3-3-3-3-3-3-||



   "I           am                 a prophet of doom"
G ||------------------------------------------------------||
D ||----4-----2-4-------4--2-4-----4---2-4-------4----2-4-||
A ||---------------0-0---0--------------------------------||
E ||-2-----2--------------------0----0--------------------||
B ||----------------------------------------3-3-----3-----||


III.  OUTRO/"My soul's on fire" riff:
(Play these slow, dirge-like)
G ||-----------------------------------------------||
D ||-----------------------------------------------||
A ||-----------------------------------------------||
E ||-----4---7---7/14---\-------4----7^6^7^6^7^6---||
B ||-2--------------------0-2----------------------||


"My    soul's on    fire..."
G ||-----------------------------------------------||
D ||-----------------------------------------------||
A ||-----------------------------------------------||
E ||-----4---7---7/14---\-------4----7^6^7^6^7^6---||
B ||-2--------------------0-2----------------------||


Change up
                                (2 times)
G ||---------------------------------------||
D ||---------------------------------------||
A ||---------------------------------------||
E ||--11---10---9---8------11--10--9---8---||
B ||---------------------------------------||

                                 (1 time)
G ||----------------------------------------||
D ||----------------------------------------||
A ||----------------------------------------||
E ||-5---4---3---2--------5--4----3-----2---||
B ||----------------------------------------||

                                  (1 time)
G ||----------------------------------------||
D ||----------------------------------------||
A ||----------------------------------------||
E ||----------------------------------------||
B ||--4---3---2---1--------4--3----2----1---||


"My soul's on fire..."
G ||-----------------------------------------------||
D ||-----------------------------------------------||
A ||-----------------------------------------------||
E ||-----4---7---7/14---\-------4----7^6^7^6^7^6---||
B ||-2--------------------0-2----------------------||

 Outro
G ||-------------------------------------------||
D ||-------------------------------------------||
A ||-------------------------------------------||
E ||-----4---7---7-5--------4----7^6^7^6^7^6---||
B ||-2---------------7\--2---------------------||

            
            
Suggest correction
Creating personal tab
Creating personal tab
You can edit any tab online and save it as your Personal.

You can edit, replace or remove any tab part or add personal notes – all changes will be seen only by you.

Personal tabs can be accessed anytime from any device, even offline.
Learn more »
Give kudos to tab author, rate the tab!
1 2 3 4 5
comments
print report bad tab
guest
You may want to rate the tab now too:
select rating
Wanna post a correction for this tab? Suggest correction