Oops, an error
Loading. Please wait.

Some Stupid Tomorrow tab

version 1
version 1

Whole song

Interactive

868 views 3 this week
no commentswrite comment
1 2 3 4 5
2 more votes to show rating
add to favorites
×
Save as Personal and add changes to this tab that will be seen only by you. Learn more ›
×
You can save this tab as Personal to edit and correct it or add notes. All changes will be seen only by you. Learn more »
launch autoscroll
font size
0
reset
how to read this tab
guitar tuner
edit
Autoscroll
slow
fast
+/-
esc
set tempo
stop
Author
Difficulty
"Some Stupid Tomorrow"
From DEAD AGAIN by Type O Negative
Tab by Raza Mahmood
Tune guitar 2.5 steps below standard
Low to high: B,E,A,D,F#,b

pm.= palm mute

I. INTRO  (2 times)

Slow!
b ||-----------------------------------------------------|
F#||-----------------------------------------------------|
D ||-----------------------------------------------------|
A ||---2------------7-7-7--------------------------------|
E ||---2----5-5-5---5-4-5---7-7-7--7-7-7--6--5--4--3--2--|
B ||--\0----3-2-3-----------5-4-5--6-7-8--7--6--5--4--3--|

 pm.......................................|
|----------------------------------------------||
|----------------------------------------------||
|----------------------------------------------||
|----------------------------------------------||
|-4--4--5--5--6--6--7--7--8--8--9--9--10-10-9\-||
|-2--2--3--3--4--4--5--5--6--6--7--7--8--8--7\-||

II. VERSE 

Fast!  
Bass only first time, vocals 2nd, 3rd time.       

"I can't play God..."
"I have my orders..."
||------------------------------------------------------||
||------------------------------------------------------||
||------------------------------------------------------||
||-------7-7-7-------7-7-7-------7-7-7--10-9--8--7------||
||--------------------------------------8--7--6--5--12\-||
||-5-5-5-------5-5-5-------5-5-5------------------------||

  "IOI..."                       "In on it!"
  "IOI..."                       "In on it!               Neverforget"
       pm.     pm.     pm.            pm.     pm.     pm.
||------------------------------|-----------------------------||----||
||------------------------------|-----------------------------||----||
||------------------------------|-----------------------------||----||
||-7/9-----7/9-----7/9----------|-7/9-----7/9-----7/9---------||----||
||-5/7-0-0-5/7-0-0-5/7-0-0--7\6-|-5/7-0-0-5/7-0-0-5/7-0-0---5-||--5-||
||-----0-0-----0-0-----0-0------|-----0-0-----0-0-----0-0--6--||-6--||

REPEAT:                                               (4 times)
  "Punching in walls..."
  "Therapy is slow..."
||------------------------------------------------------||
||------------------------------------------------------||
||------------------------------------------------------||
||-------7-7-7-------7-7-7-------7-7-7--10-9--8--7------||
||--------------------------------------8--7--6--5--12\-||
||-5-5-5-------5-5-5-------5-5-5------------------------||


  "IOI..."                       "In on it!"
  "IOI..."                       "In on it!               Neverforget"
       pm.     pm.     pm.            pm.     pm.     pm.
||------------------------------|-----------------------------||----||
||------------------------------|-----------------------------||----||
||------------------------------|-----------------------------||----||
||-7/9-----7/9-----7/9----------|-7/9-----7/9-----7/9---------||----||
||-5/7-0-0-5/7-0-0-5/7-0-0--7\6-|-5/7-0-0-5/7-0-0-5/7-0-0---5-||--5-||
||-----0-0-----0-0-----0-0------|-----0-0-----0-0-----0-0--6--||-6--||


III. CHORUS
  (bass only, implied chord progression)

||------------------------------------------|
||------------------------------------------|
||------------------------------------------|
||------------------------------------------|
||-4-4-4-4-4-4-4-4-/14-14-14-14-14-14-14-14-|
||------------------------------------------|

|-------------------------------------------||
|-------------------------------------------||
|-------------------------------------------||
|-------------------------------------------||
|-\9-9-9-9-9-9-9-9-/12-12-12-12-12-12-12-12-||
|-------------------------------------------||

(Let notes ring)
  "Some stupid tomorrow..."
||-9---------------(9)-----------------------9-----------||
||-9---------------(9)-----------------------9-----------||
||-6---------------(6)-----------------------6-----------||
||-------------------------------------------------------||
||-------------------------------------------------------||
||-------------------------------------------------------||

"...Yesterday"
  with Distortion, chorus, delay...
||-9-9-9-9-9-9-9-9--9-9-9-9-9-9-9-9-9-|
||-9-9-9-9-9-9-9-9-\7-7-7-7-7-7-7-7-7-|
||------------------------------------|
||------------------------------------|
||------------------------------------|
||------------------------------------|

|-/--16--16--16----12-12-12-12-12-12-12-12\------||
|-/14--14--14--14--12-12-12-12-12-12-12-12\------||
|------------------------------------------------||
|------------------------------------------------||
|------------------------------------------------||
|------------------------------------------------||

REPEAT INTRO, VERSE

END


            
            
Suggest correction
Creating personal tab
Creating personal tab
You can edit any tab online and save it as your Personal.

You can edit, replace or remove any tab part or add personal notes – all changes will be seen only by you.

Personal tabs can be accessed anytime from any device, even offline.
Learn more »
Give kudos to tab author, rate the tab!
1 2 3 4 5
comments
print report bad tab
guest
You may want to rate the tab now too:
select rating
Wanna post a correction for this tab? Suggest correction