Oops, an error
Loading. Please wait.

Unsuccessfully Coping With The Natural Beauty Of Infidelity bass

2,551 views 3 this week
no commentswrite comment
1 2 3 4 5
2 more votes to show rating
add to favorites
×
Save as Personal and add changes to this tab that will be seen only by you. Learn more ›
×
You can save this tab as Personal to edit and correct it or add notes. All changes will be seen only by you. Learn more »
launch autoscroll
font size
0
reset
guitar tuner
edit
Autoscroll
slow
fast
+/-
esc
set tempo
stop
Type O Negative – Unsuccessfully Coping With the Natural Bond of Infidelity

Bass tab by Jaysif.

Tuning: BEADG.

Disclaimer: This tab is not official it was written by me and sounds ok when played 
to the song, it may not be what Peter actually plays but hey it’s a bit of fun :). I also 
that Peter doesn’t play 5 he plays a down-tuned 4, but I play  a 5 so I have tabbed it as such.

Please check out my video cover of this song using this tab :)
http://066a2290.linkbucks.com

Legend:
~ = Let ring.
v = Vibrato.
/ = Slide up.
\ = Slide down.
h = Hammer on.
p = Pull off.

Part A Riff 1 (00:43)
G)-------------------------|
D)-------------------------|
A)------99-9—7-------------|  x4
E)-99-9-------- 77--6-77---|
B)-------------------------|

Part A Riff 2 (00:56)
G)------------------------------------------------|
D)------------------------------------------------|
A)------------------------------------------------|  x2
E)------5------77~-------------5------77-55-44----|
B)-77-7----55----------77-7-------55--------------|

Part A Riff 1 (01:08)
G)-------------------------|
D)-------------------------|
A)------99-9—7-------------|  x4
E)-99-9-------- 77--6-77---|
B)-------------------------|

Part A Riff 3 (01:21)
G)----------------------------------------------|
D)----------------------------------------------|
A)----------------------------------------------|
E)----------------------------------------------|
B)-7—6—5--4—4/7--6--5---7--6--5--4--3--4--5--0--|

Part A Riff 1 (02:09)
G)-------------------------|
D)-------------------------|
A)------99-9—7-------------|  x4
E)-99-9-------- 77--6-77---|
B)-------------------------|

Part A Riff 2 (02:27)
G)------------------------------------------------|
D)------------------------------------------------|
A)------------------------------------------------|  x2
E)------5------77~-------------5------77-55-44----|
B)-77-7----55----------77-7-------55--------------|

Part A Riff 1 (02:39)
G)-------------------------|
D)-------------------------|
A)------99-9—7-------------|  x4
E)-99-9-------- 77--6-77---|
B)-------------------------|


Part B (02:58)
G)----
D)----
A)----
E)----
B)-7/\

(03:09)
G)---------|
D)---------|
A)---------|
E)-5-4---2-|
B)---------|

(03:27)
G)-------|
D)-------|
A)-------|   x12
E)2/987v
B)-------

Part C Riff 1 (04:24)
G)---------------------------------------------------|
D)---------------------------------------------------|
A)---------------------------------------------------|
E)-4-5-5/7-6-5-------------4-5-5/7-6-5---------------|
B)-------------7-6-5-4-3-2-------------7-6-5-4-3-2/\-|

Part C Riff 2 (05:38)

G)------------------------------------|
D)----4--------2-------4------4-------|
A)-----------0-----0-2----------------|   x4
E)-2-----2----------------00-----0----|
B)------------------------------------|

Part C Riff 3 (05:52)
G)--------------------------------------------|
D)--------------------------------------------|
A)--------------------------------------------|   x2
E)2-22—5-55/9---------2-22—5-55/9h10p9--------|
B)------------10\----------------------10\----|

Part C Riff 4 (06:07)
G)----------------------|
D)----------------------|
A)-44------------5-7-5--| x3
E)------2-55—-7---------|
B)----------------------|
Then end this riff with…
G)-----------|
D)-----------|
A)-4---------|
E)----2--5---|
B)-----------|

Part C Riff 2 (06:23)
G)------------------------------------|
D)----4--------2-------4------4-------|
A)-----------0-----0-2----------------|   x4
E)-2-----2----------------00-----0----|
B)------------------------------------|

Part C Riff 3 (06:37)
G)--------------------------------------------|
D)--------------------------------------------|
A)--------------------------------------------|   x2
E)2-22—5-55/9---------2-22—5-55/9h10p9--------|
B)------------10\----------------------10\----|

Part C Riff 4 (06:52)
G)----------------------|
D)----------------------|
A)-44------------5-7-5--| x3
E)------2-55—-7---------|
B)----------------------|
Then end this riff with…
G)-----------|
D)-----------|
A)-4---------|
E)----2--5---|
B)-----------|

Part C Riff 2 (07:08)
G)------------------------------------|
D)----4--------2-------4------4-------|
A)-----------0-----0-2----------------|   x4
E)-2-----2----------------00-----0----|
B)------------------------------------|


Part C Riff 5 (08:47)
Timing is a bit tricky on this one…
G)-----------------|
D)-----------------|
A)----9-8-7---6----|
E)-7---------------|
B)-----------------|

G)----------------------------------------|
D)----------------------------------------|
A)------------------9-99-9----9-8-7---6---|  x8
E)-9-99-99—7-77-6h7---------7-------------|
B)----------------------------------------|
And finally end this bit with a D at the end at (10:04)
G)---
D)---
A)-5
E)---
B)---

Part C Riff 2 (10:37)

G)------------------------------------|
D)----4--------2-------4------4-------|
A)-----------0-----0-2----------------|   x4
E)-2-----2----------------00-----0----|
B)------------------------------------|

Part C Riff 6 (12:20)
G)-------------|
D)-------------|
A)-------------|
E)-5-7---------|
B)-------5-7\--|

That’s yer’ lot, enjoy :).

            
            
Suggest correction
Creating personal tab
Creating personal tab
You can edit any tab online and save it as your Personal.

You can edit, replace or remove any tab part or add personal notes – all changes will be seen only by you.

Personal tabs can be accessed anytime from any device, even offline.
Learn more »
Give kudos to tab author, rate the tab!
1 2 3 4 5
comments
print report bad tab
guest
You may want to rate the tab now too:
select rating
Wanna post a correction for this tab? Suggest correction