Oops, an error
Loading. Please wait.

An Angel Chords

7,655 views 12 this week
no commentswrite comment
1 2 3 4 5
please rate
add to favorites
launch autoscroll
font size
0
reset
transpose
0
reset
simplify chords
display chords
guitar tuner
Tab Pro tools
  • play this tab
  • loop segment
  • change instrument
  • show fretboard
  • metronome
×
Best way to learn
"An Angel"
Autoscroll
slow
fast
+/-
esc
set tempo
stop
Contributor
Typecast
An Angel
Every Moss and Cobweb Hidden Track
Tabbed by: paramore_fans@yahoo.com
add nyo ako sa friendster n2sed_182@yahoo.com

Tuning: Standard EADGBe

Chords used:
G -   320033
C9 -  x32033
G/B - x2x033
B7 -  x21202
D -   xx0232
C -   x32010
Em -  022000

Intro:
           G                      C9
e|----------------------|----------------------|
B|------3----0----------|------3----0----------|
G|----0----0------0---0-|----0----0------0---0-|
D|--------------0---0---|--------------0---0---|
A|----------------------|-3--------------------|
E|-3--------------------|----------------------|
           x2                       x2
then
           G                       C9
e|----------------------|------------------------|
B|------3----0----------|------3----0------------|
G|----0----0------0---0-|----0----0------0---0---|
D|--------------0---0---|--------------0---0-----|
A|----------------------|-3--------------------3-|
E|-3--------------------|------------------------|
           x2


Verse 1: Same as intro plucking
     G                        C
It's our eyes grow weary, our lips tight of silence
G/B                     C
It was a long day, it's time to go to bed

       G/B           C9
e|-------------|-------------|
B|-------3-----|-------3-----|
G|-----0-----0-|-----0-----0-|
D|---0-----0---|---0-----0---|
A|-2-----------|-3-----------|
E|-------------|-------------|
        x4           x4

    G/B                   C9
Coz lying next to you, is all that I want tonight
    G/B                    C9
You make me feel secure, I hope back and stop time


Chorus:
   G                        C9
So peaceful and silent, I'd seen an angel
 G/B                      B7
Sleeping all night away, sleeping all night away


Verse 2:
     G                          C9
It's our eyes grow slowly, with words are still unspoken
  G/B                                 C9
I don't know what else to say but goodnight
    G/B                   C9
Coz lying next to you, is all that I want tonight
    G/B                    C9
You make me feel secure, I hope back and stop time


Interlude:
           C9                 D
e|-3-3-3-3--2-2-2-2-|-0-0-0-0--2-2-2-2-|
B|-3-3-3-3--3-3-3-3-|-3-3-3-3--3-3-3-3-|
G|-0--------0-------|-2--------2-------|
D|-2--------2-------|-0--------0-------|
A|-3--------3-------|------------------|
E|------------------|------------------|


(Repeat Chorus 1)


Chorus 2:
   G                        C9
So peaceful and silent, I'd seen an angel
    G/B                  B7
And I'll try anything to wake you up again


Bridge:
C                   G/B C                  G/B
  I made mistakes before, I promise not to do it again
C        G/B              C               D          
     G
  Let me ask you just one question, Can I lean on your shoulder?
     C9             Em      C
your shoulder, your shoulder

(Repeat Chorus 1 and 2)
(Repeat Intro)
comments
We did not receive enough feedback on this tab! Please rate:
print report bad tab
1 2 3 4 5
I want to post or [tab]
guest
You may want to rate the tab now too:
select rating
Please do not post tabs as comments. Select "correction" instead!