Oops, an error
Loading. Please wait.

An Angel Tab

version 1
version 1

Whole song

3,589 views 1 this week
9 commentsread comments
1 2 3 4 5
please rate
add to favorites
launch autoscroll
font size
0
reset
how to read this tab
guitar tuner
Tab Pro tools
  • play this tab
  • loop segment
  • change instrument
  • show fretboard
  • metronome
×
Best way to learn
"An Angel"
Autoscroll
slow
fast
+/-
esc
set tempo
stop
Contributor
grace_underpressure8@yahoo.com
jayson_cj10@yahoo.com-friendster
gian_broken13@yahoo.com-friendster
takingbacksunday2113@yahoo.com-myspace
posthardcore_10@yahoo.com-myspace
myspace.com/typecast
e2 sa fav. classmate nMin richard_gawad@yahoo.com

tabbed:carlo p.
bandname:the band is changing their name!!!!!!!
school:Ama Sta.Cruz(walang kwenta)
ym???? YuMMy!!haha 

album:Every Moss and Cobweb
title:An angel
artist:Typecast

intro/verse
 
          G                            
|-------3---------------|
|--------3---3---3------|
|-----------------------| 2x
|-----0---------=-------| 
|----2-----2---2--------|
|--3--------------------|

         C9

|-------3---------------|
|--------3---3---3------|
|------0----------------| 2x
|-----2----2---2--------| 
|---3-------------------|
|-----------------------|

Chorus:

G           G
So peaceful and silent 
C9     C9
I see an angel 
G             G
Sleeping the night away
C9           C9
Sleeping the night away

      G                            
|-------3---------------|
|--------3---3---3------|
|-----------------------| 2x
|-----------------------| 
|----2-----2---2--------|
|---3-------------------|

         C9

|-------3---------------|
|--------3---3---3------|
|-----------------------| 2x
|-----2----2---2--------| 
|---3-------------------|
|-----------------------|

tapos may ganito na
 
             Dsus
|----33333---22222---00000-------------|
|----33333---33333---33333----3--------|
|----22222---22222---22222-------------| 
|--------------------------------------| 
|--------------------------------------|
|--------------------------------------|

Chorus:2x

G           G
So peaceful and silence 
C9     C9
I see an angel 
G             G
Sleeping the night away
C9           C9
Sleeping the night away
G             G
And I'll try anything 
C9         C9
To wake the bed

My Favorite part
Bridge:
   C9              Em
I've made mistakes before.........
   C9              Em
I promise not to do it again
   C9           Em           D
Let me ask you just one question
     D                   G
Can I lean on your shoulder
C9
Your shoulder.....
G            C9
Your shoulder.....

Chorus:

G           G
So peaceful and silence 
C9     C9
I see an angel 
G             G
Sleeping the night away
C9           C9
Sleeping the night away
G             G
And I'll try anything 
C9         C9
To wake the bed.

End


Hi to typecast!!!!!
kmusta  daw sabi ng LMB(hehe)
Hi sa lahat ng bAtch 05-06 Liceo de Pila....
hi to bRyan labing of Mighty kids (buo pb?)
sa drummer nmin pumasok k nmn sa skul mataas n ang bakod ng liceo yari k kay melchor...
hi to lemus of mighty kids
un lng..
hail lagunahardcore
comments
We did not receive enough feedback on this tab! Please rate:
print report bad tab
1 2 3 4 5
9 comments total. Showing first comments.
0 reply
nupandu07 wrote on November 21 2006, 08:45 pm

talaga po bang sa every moss and cobweb 2ng song na 2..?

0 reply
emo_punk wrote on November 24 2006, 04:45 am

oo nga..every moss nga ba 2? baka namn mali title mo?

0 reply
guiltkill wrote on November 26 2006, 04:49 am

tama yan!!! yan ung 2nd part dun sa kantang dont take me from me.. ung acoustic dun..before kc demo lng nila ito..

I want to post or [tab]
guest
You may want to rate the tab now too:
select rating
Please do not post tabs as comments. Select "correction" instead!