Oops, an error
Loading. Please wait.

An Angel Tab

version 2
version 2

Whole song

901 views 1 this week
no commentswrite comment
1 2 3 4 5
please rate
add to favorites
launch autoscroll
font size
0
reset
how to read this tab
guitar tuner
Autoscroll
slow
fast
+/-
esc
set tempo
stop
Help us to improve Ultimate-Guitar.com Take our survey!
×
Author
Difficulty
intermediate
Song: An Angel
Artist: typecast
Date tabbed: jan 25 2007
Guitar tabber: Haaron John J. Cendico  (pki add!!! Haaronjohn_11@yahoo.com) ty!!!!!



Intro:
	G			C9
e|-------------------| e|-------------------|
B|-------3-0---------| B|-------3-0---------|
G|---0----------0---0| G|---0----------0---0| 2x
D|-----0----------0--| D|-----0----------0--|
A|-------------------| A|-3----------3------|
E|-3----------3------| E|-------------------|

Verse1

	G			C9
e|-------------------|   e|-------------------|
B|-------3-0---------|   B|-------3-0---------|
G|---0----------0---0|4x G|---0----------0---0| 4x
D|-----0----------0--|   D|-----0----------0--|
A|-------------------|   A|-3----------3------|
E|-3----------3------|   E|-------------------|
   

	G			C9
e|--------------|   e|--------------|
B|-------3------|   B|-------3------|
G|---0----------|4x G|---0----------| 4x
D|-----0--------|   D|-----0--------|
A|--------------|   A|-3------------|
E|-3------------|   E|--------------|
   
Then:
     C9
e|--0--|
B|--3--|
G|--0--| 
D|--0--|
A|--3--|
E|-----|
   

Chorus:
	G		        C9                     D/B
e|-3--2--3--2-| e|-3--2--3--2-| e|-2--2~-|
B|-3--3--3--3-| B|-3--3--3--3-| B|-3--3~-|
G|-0--0--0--0-| G|-0--0--0--0-| G|-0--0~-|
D|-0--0--0--0-| D|-x--x--x--x-| D|-x--x--|
A|-x--x--x--x-| A|-3--3--3--3-| A|-2--2~-|
E|-3--3--3--3-| E|------------| E|-------|









Verse2
   

	G			C9
e|-------------------|   e|-------------------|
B|-------3-0---------|   B|-------3-0---------|
G|---0----------0---0|4x G|---0----------0---0| 4x
D|-----0----------0--|   D|-----0----------0--|
A|-------------------|   A|-3----------3------|
E|-3----------3------|   E|-------------------|


	G		        C9                     D
e|-0--0--0--0-| e|-0--0--0--0-| e|-0-0-3-3-2-2~-|
B|-3--3--3--3-| B|-3--3--3--3-| B|-3-3-3-3-3-3~-|
G|-0--0--0--0-| G|-0--0--0--0-| G|-2-2-2-2-2-2~-|
D|-0--0--0--0-| D|-x--x--x--x-| D|--------------|
A|-x--x--x--x-| A|-3--3--3--3-| A|--------------|
E|-3--3--3--3-| E|------------| E|--------------|





Chorus: 2x
	G		        C9                     D/B
e|-3--2--3--2-| e|-3--2--3--2-| e|-2--2~-|
B|-3--3--3--3-| B|-3--3--3--3-| B|-3--3~-|
G|-0--0--0--0-| G|-0--0--0--0-| G|-0--0~-| 
D|-0--0--0--0-| D|-x--x--x--x-| D|-x--x--|
A|-x--x--x--x-| A|-3--3--3--3-| A|-2--2~-|
E|-3--3--3--3-| E|------------| E|-------|

Then
“Ive made mistakes before…”       “can I lay on your shoulder…”
e|-0-0--2-2-|   e|-3-2-3-2-|       e|-33-22-0000--333--------------|
B|-3-3--3-3-|4x B|-3-3-3-3-|       B|-33-33-3333--333-555-777-8888-|
G|-0-0--0-0-|   G|-0-0-0-0-|       G|-22-22-2222--000-000-000-0000-|
D|-x-x--x-x-|   D|-x-x-x-x-|       D|-------------xxx-xxx-xxx-xxxx-|
A|-3-3--2-2-|   A|-3-3-3-3-|       A|-------------333-xxx-xxx-xxxx-|
E|----------|   E|---------|       E|-----------------555/777/8888-|


Chorus: 2x
	G		        C9                     D/B
e|-3--2--3--2-| e|-3--2--3--2-| e|-2--2~-|
B|-3--3--3--3-| B|-3--3--3--3-| B|-3--3~-|
G|-0--0--0--0-| G|-0--0--0--0-| G|-0--0~-| 
D|-0--0--0--0-| D|-x--x--x--x-| D|-x--x--| 4x
A|-x--x--x--x-| A|-3--3--3--3-| A|-2--2~-|
E|-3--3--3--3-| E|------------| E|-------|




Outro:

	G			C9
e|-------------------| e|-------------------|
B|-------3-0---------| B|-------3-0---------|
G|---0----------0---0| G|---0----------0---0| 2x
D|-----0----------0--| D|-----0----------0--|
A|-------------------| A|-3----------3------|
E|-3----------3------| E|-------------------|

	G			C9
e|-------------------| e|-------------------|
B|-------3-0---------| B|-------3-0---------|
G|---0----------0---0| G|---0----------0---0| 2x
D|-----0----------0--| D|-----0----------0--|
A|-------------------| A|-3----------3------|
E|-3----------3------| E|-------------------|

e|---------------2--2--2--2--2--2---|
B|---0--0--0------------------------|
G|----------------------------------|
D|----------------------------------|
A|-3--3--3--3--3--3--3--3--3--3-----|
E|----------------------------------|

	G			C9
e|-------------------| e|-------------------|
B|-------3-0---------| B|-------3-0---------|
G|---0----------0---0| G|---0----------0---0| 2x
D|-----0----------0--| D|-----0----------0--|
A|-------------------| A|-3----------3------|
E|-3----------3------| E|-------------------|

E|-------------------------|
B|----0--0--0--0--0--0--0--|
G|-------------------------|
D|-------------------------|
A|-33--3--33-3-33-3-33-3---|
E|-------------------------|

End:

E|------|
B|------|
G|--0---|
D|------|
A|--3---|	
E|------|



Ah!!! Binabati ko pala yung bandang croco basin!!!!!
Tska kay martinez, dela pena, at riva para sa inyo to!!!!!! 
At sa St john!!! Specialy kay louel gamba!!!! Hehe….
Suggest correction
Give kudos to tab author, rate the tab!
1 2 3 4 5
comments
print report bad tab
guest
You may want to rate the tab now too:
select rating
Please do not post tabs as comments. Select "correction" instead!