Oops, an error
Loading. Please wait.

An Angel Tab

version 3
version 3

Whole song

775 views 1 this week
no commentswrite comment
1 2 3 4 5
please rate
add to favorites
launch autoscroll
font size
0
reset
how to read this tab
guitar tuner
Autoscroll
slow
fast
+/-
esc
set tempo
stop
Help us to improve Ultimate-Guitar.com Take our survey!
×
Author
Difficulty
intermediate
elo po! e2 po ung 1st tab n ginawa k. sana tama to!


An Angel by Typecast
Every Moss and Cobweb
Track 13 (After "Don't Take Me from Me")
Tabs submitted by: Brian Dela Cruz

INTRO       
           G
|-----------------------|
|--------3----0---0-----|
|---------0-------------| 2x
|------0----------------|
|----2------2---2-------|
|--3--------------------|

           C9
|-----------------------|
|--------3----0----0----|
|------0--0-------------| 2x
|----2------2---2-------|
|--3--------------------|
|-----------------------|

           G
|-----------------------|
|--------3----0---0-----|
|---------0-------------| 2x
|------0----------------|
|----2------2---2-------|
|--3--------------------|

           C9
|-----------------------|
|--------3----0----0----|
|------0--0-------------| 2x
|----2------2---2-------|
|--3--------------------|
|-----------------------|


Verse:


           G
|-----------------------|
|--------3----0---0-----|
|---------0-------------| 2x
|------0----------------|
|----2------2---2-------|
|--3--------------------|

           C9
|-----------------------|
|--------3----0----0----|
|------0--0-------------| 2x
|----2------2---2-------|
|--3--------------------|
|-----------------------|

           G
|-----------------------|
|--------3----0---0-----|
|---------0-------------| 2x
|------0----------------|
|----2------2---2-------|
|--3--------------------|

           C9
|-----------------------|
|--------3----0----0----|
|------0--0-------------| 2x
|----2------2---2-------|
|--3--------------------|
|-----------------------|


Refrain
           G
|-----------------------|
|--------3--------------|
|----------0------------| 4x
|------0-----0----------|
|----2------------------|
|--3--------------------|

	   C9
|-----------------------|
|--------3--------------|
|------0---0------------| 4x
|----2-------2----------|
|--3--------------------|
|-----------------------|

           G
|-----------------------|
|--------3--------------|
|----------0------------| 4x
|------0-----0----------|
|----2------------------|
|--3--------------------|

	   C9
|-----------------------|
|--------3--------------|
|------0---0------------| 4x
|----2-------2----------|
|--3--------------------|
|-----------------------|



Chorus:

G
So peaceful and silent
C9
I see an angel
G
Sleeping the night away
C9
Sleeping the night away



Verse:
           G
|-----------------------|
|--------3----0---0-----|
|---------0-------------| 2x
|------0----------------|
|----2------2---2-------|
|--3--------------------|

           C9
|-----------------------|
|--------3----0----0----|
|------0--0-------------| 2x
|----2------2---2-------|
|--3--------------------|
|-----------------------|

           G
|-----------------------|
|--------3----0---0-----|
|---------0-------------| 2x
|------0----------------|
|----2------2---2-------|
|--3--------------------|

           C9
|-----------------------|
|--------3----0----0----|
|------0--0-------------| 2x
|----2------2---2-------|
|--3--------------------|
|-----------------------|

Refrain
(strumming)
G
Cause lying next to you
C9
is all that i want tonight
G
you made me feel secured
C9
i hope i can stop time


(bago mag chorus ulit, may pahabol pa)

|--3-3-3--2-2-2--0-0-0--2|
|--3-3-3--3-3-3--3-3-3--3|
|--2-2-2--2-2-2--2-2-2--2|
|------------------------|
|------------------------|
|------------------------|

Chorus:

G
So peaceful and silent
C9
I see an angel
G
Sleeping the night away
C9
Sleeping the night away

G
So peaceful and silent
C9
I see an angel
G
and i'll try anything
C9
to wake you up the bed



Bridge:

C9                    Em
i've made misktakes before
C9                 Em   
  i promise not to do it again
C9        Em                C9
  let me ask you just one question
       D             G
can i lean on your shoulder
C9
your shoulder....
G                     C9
your shoulder....



Chorus:

G
So peaceful and silent
C9
I see an angel
G
Sleeping the night away
C9
Sleeping the night away

G
So peaceful and silent
C9
I see an angel
G
and i'll try anything
C9
to wake you up the bed




Outro:
(parehas lng ung intro at outro. may binago lang.)




paki invite nmn poh s friendster
bry_0811@yahoo.com
Suggest correction
Give kudos to tab author, rate the tab!
1 2 3 4 5
comments
print report bad tab
guest
You may want to rate the tab now too:
select rating
Wanna post a correction for this tab? Suggest correction