Oops, an error
Loading. Please wait.

Another Minute Until 10 Bass Tab

702 views 1 this week
no commentswrite comment
1 2 3 4 5
2 more votes to show rating
add to favorites
launch autoscroll
font size
0
reset
guitar tuner
Autoscroll
slow
fast
+/-
esc
set tempo
stop
Help us to improve Ultimate-Guitar.com Take our survey!
×
Song:Another Minute Until 10
Album:The Infatuation is Always There
Artist:Typecast
Artist:Typecast
Date Tabbed:January,2007
Guitar Tabber:Ryan Manongdo/16/m/Montalban Rizal
              no_falter0x@yahoo.com(Friendster and YM)

Gtr.Legends:
~ - let it ring
. - heavy palm muting
h - hammer-on
/ - slide

Gtr.Tuning:Standard(Normal)

Intro:After the gtr.Intro
G|-------------------------------------------------------------------|
D|-------------------------------------------------------------------|
A|------------------2222/3333------------------2222/3333-------------|
E|-3-2-0~~--000000--------------3-2-0~--00000--------------3-2-0~~---|

Pre-Verse 1:
G|------------------------|
D|------------------------|
A|------------------------|
E|-00-00-00-00-00-00-00---|
   .. .. .. .. .. .. ..

Verse 1:The sky is shining...
G|--------------------|
D|--------------------| 4x
A|-3333---------------|
E|------5555--00-00---|
              .. ..

Chorus:Try,try me...
G|-----------------------------------------------|
D|-----------------------------------------------|
A|-00000--33333-------------------00000--33333---|
E|----------------00-00-00-00-00-----------------|
                  .. .. .. .. ..

Repeat Intro:

Verse 2:Unsuspectable drop...

Repeat Chorus:

Bridge:Bass and Drum Enters
G|--------------------------------------------|
D|--------------------------------------------| 2x
A|-3333-3h5/7---3333-3h5/7--------------------| Then
E|---------------------------5555555--3-2-0---|

G|-------------|
D|-------------|
A|-3333-5555---|
E|-------------|

Repeat Chorus:

Last Chords:
G|------------|
D|------------|
A|------------|
E|-3-2-0--0---|
          .

End...

Suggest correction
Give kudos to tab author, rate the tab!
1 2 3 4 5
comments
print report bad tab
guest
You may want to rate the tab now too:
select rating
Wanna post a correction for this tab? Suggest correction