Oops, an error
Loading. Please wait.

Another Minute Until Ten Bass Tab

version 1
version 1

Whole song

778 views 1 this week
no commentswrite comment
1 2 3 4 5
3 more votes to show rating
add to favorites
launch autoscroll
font size
0
reset
guitar tuner
×
Best way to learn
"Another Minute Until Ten"
Autoscroll
slow
fast
+/-
esc
set tempo
stop
Difficulty
intermediate
kung may mali.. bahala na kayo.. basta ito nakita ko sa live nila sa fiestamundo.
siguro may mali konti kasi hindi pinapakita nung camera man..
(: (joshua egonia) :)
marami pong nagkamali kasi hindi po ito drop d tuning, pati po sa gitara..
gitara muna..
sa kaskasan na. (2x)
G:---------------------------------------------------------------------:----|
D:---------------------------------------------------------------------:----|
A:---------2/3-----------------2--22-2--2-2-2--3--33-3--3-3-3----------:----|
E:-0--00-0-----0--00-0-5-5-5-----------------------------------3-2-0---:--0-|
let rrrrrrring ung 0............

G:--------------------------------------------------------------------------|
D:--------------------------------------------------------------------------|
A:--7-7-7-7-7-7-7-7-7-7-7-7-7-7-7-7-----------------------------------------|
E:--------------------------------------------------------------------------|
the sun is shining down on you......
G:--------------------------------------------------------------------------|
D:--------------------------------------------------------------------------|
A:-3-3-33-3---0-0-00-0---7-7-77--7---7-7-77---------------------------------|
E:--------------------------------------------------------------------------|
try, try me....
G:--------------------------------------------------------------------------|
D:--------------------------------------------------------------------------|
A:---0-0-0-0-0-0-0-0---3--33-3----------------------------------------------|
E:--------------------------------------------------------------------------|
brige:
G:------------------------0------------------------0-------------------------|
D:--2--2--2--2--2--2--0-2----2--2--2--2--2--2--0-2---------------------------|
A:----------------------------------------------------0--0--0--0--0--0--0--0-|
E:---------------------------------------------------------------------------|

  --------------------------------------------------------------------------|
  --------------------------------------------------------------------------|
  --0--0--0--0--0--0--------------------------------------------------------|
  --------------------3-2-0-------------------------------------------------|
(2x)

let ring
G:--------------------------------------------------------------------------|
D:--------------------------------------------------------------------------|
A:--3----------------5------------------------------------------------------|
E:--------------------------------------------------------------------------|
Suggest correction
Give kudos to tab author, rate the tab!
1 2 3 4 5
comments
print report bad tab
guest
You may want to rate the tab now too:
select rating
Wanna post a correction for this tab? Suggest correction