Oops, an error
Loading. Please wait.

Another Minute Until Ten Tab

version 1
version 1

Whole song

7,064 views 1 this week
3 commentsread comments
1 2 3 4 5
accurate
x 6
add to favorites
launch autoscroll
font size
0
reset
how to read this tab
guitar tuner
Autoscroll
slow
fast
+/-
esc
set tempo
stop
Help us to improve Ultimate-Guitar.com Take our survey!
×
Author
-------------------------------------------------------------------------------
                             SONG NAME - Another Minute Until Ten
-------------------------------------------------------------------------------
Tabbed by: MARC LE-VIR V. SARMIENTO, BSEE-3B 2004-2005, TUP-MANILA
Email: MARCLEVIRSARMIENTO2003@YAHOO.COM
Message:
           Sana magustuhan niyo itong tab na 'to, first tab ko na
           serious,para 'to sa mga seryosong tao...try niyo naman
           na maging ganito kaayos ang tab niyo, make it a goal na
           nasa 90% ang accuracy ng tab niyo para masayatayong lahat!!!
                          -=rest in peace=-

   Tuning: Drop d, Regular Tuning

    Intro-part 1
                               guitar 1
e|----------------------7-----------------------------------7-------------|
B|----8---10-8------7h8---8---------------8---10-8------7h8---8-----------|
G|------7------7--7---------7---------------7------7--7---------7---------|
D|---------------------------- 2x then -----------------------------------|
A|--7-----------------------------------0---------------------------------|
E|------------------------------------------------------------------------|

e|-----------------------------------10-----------------------------------|
B|--on the last time---8---10-8-------------------------------------------|
G|-----------------------7------7--7--------------------------------------|
D|------------------------------------------------------------------------|
A|-------------------0----------------------------------------------------|
E|------------------------------------------------------------------------|

                               guitar 2(played over guitar 1)
e|--10-------10-------12-------10-------10-------12-----------------------|
B|-----12-------12-------12-------12-------12-------12--------------------|
G|--------11-------12-------12-------11-------12-------12-----------------|
D|------------------------------------------------------------------------|
A|------------------------------------------------------------------------|
E|------------------------------------------------------------------------|
   
    Intro-part 2

e|------------------------------------------------------------------------
B|------------3-3---0-0---------------------------------------------------
G|----------------2-----------------2---------4---------------------------
D|--5-4-2--2------------2/4-5-----4-----4-5-4---5-4-4/5--5-5-5------------
A|--5-4-2--2------------------0-2-----2-----------------------------------
E|--5-4-2--2--------------------------------------------------------------
    . . .  .                  . .     . . . .
     Intro-part 3
e|-----------2-----2-----2-----2-----2------*5----------------------------
B|-----------33----33----3-----33----33-----------------------------------
G|-----------22----22----2-----22----22-----------------------------------
D|--5-4-2-22--2-22--2-22----22--2-22--2-22--------------------------------
A|--5-4-2-22----22----22----22----22----22--------------------------------
E|--5-4-2-22----22----22----22----22----22--------------------------------
    . . . ..    ..    ..    ..    ..    ..

      Intro-part 4-A
e|-----2-----2-----2h3p2----2----2------------2----2---------0----0----2--
B|-----33----33----3--------33---33---2/33----33---33---3----33---33---3--
G|-----22----22----2--------22---22-----------22---22---2----00---00---0--
D|--22--2-22--2-22--------22-2-22-2-22------22-2-22-2-222--2222-2222-222--
A|--22----22----22--------22---22---22------22---22---22---22---22---22---
E|--22----22----22--------22---22---22------22---22---22---22---22---22---
    ..    ..    ..        ..   ..   ..      ..   ..   ..   ..   ..   ..

       Verse
e|------------------------------------------------------------------------
B|--------------------3---------------33---------333----------------------
G|--5--------2----4-5---5-4-------0-----------0---------------------------
D|--5 strum--2--5-----------5--22---2------22---2-------------------------
A|--3-- 7x --------------------22----------22-----------------------------
E|-----------------------------22----------22-----------------------------
                               ..          ..

       Chorus
e|------------------------------------------------------------------------
B|------------------------------------------------------------------------
G|--2-  you can strum -----2-----5-- you can strum -----------------------
D|--2-  this but theres ---2-22--5-- this but theres------ then ----------
A|----  some picking here ---22--3-- some picking here--------------------
E|---------------------------22-------------------------------------------


e|----2----2----2----2----2----2------------------------------------------
B|----33---33---3----33---33---3------------------------------------------
G|----22---22---2----22---22---2------------------------------------------
D|--22-2-22-2-22---22-2-22-2-22-------------------------------------------
A|--22---22---22---22---22---22-------------------------------------------
E|--22---22---22---22---22---22-------------------------------------------
    ..   ..   ..   ..   ..   ..


        Intro-part 4-b
 
e|----2----2----2h3p2-----2----2----2h3p2----0----2----0---2----2----2---
B|----33---33---3---------33---33---3--------33---33---3---33---33---3---
G|----22---22---2---------22---22---2--------00---22---0---22---22---2---
Dl--22-2-22-2-22--------22-2-22-2-22-------2222-22-2-222-22-2-22-2-22----
A|--22---22---22--------22---22---22-------22---22---22--22---22---22----
E|--22---22---22--------22---22---22-------22---22---22--22---22---22----
    ..   ..   ..        ..   ..   ..       ..   ..   ..  ..   ..   ..

        filler
   
e|-----------------------------------------------------------------------
B|-----------------------------------------------------------------------
G|--5-5----------------7-7-----------------------------------------------
Dl--5-5--  15 times  --7-7- 8 times then some harmonics at 9th fret------
A|--3-3----------------5-5-----------------------------------------------
E|-----------------------------------------------------------------------
      .                  .
          
         end
e|-----------------------------------------------------------------------
B|-----------------------------------------------------------------------
G|-----------------------------------------------------------------------
Dl--5-4-2-2x-------------------------------------------------------------
A|--5-4-2-2x-------------------------------------------------------------
E|--5-4-2-2x-------------------------------------------------------------

    . . .

                i hope nasiyahan kayo!!!!be challenged brothers!!!!
      song structure;
        intro part 1x2
            part 2x2
            part 3x1
            part 4-a x1
        verse x4
        chorus x2
            part 2x2
            part 3x1
            part 4-b x1
        verse x4
        chorus x2
        intro part 1x4
        filler
        part 2x2
        end
| /  slide up
| \  slide down
| h  hammer-on
| p  pull-off
| ~  vibrato
| * harmonic
| . Mute note
==========================================================================
Suggest correction
comments
print report bad tab
3 comments total.
0 reply
paul21 618 wrote on May 5 2007, 10:46 pm

eto mas tama... 5twinkling stars

0 reply
tucker69 757 wrote on May 10 2007, 05:21 am

aus...

0 reply
giobautista02 38 wrote on May 10 2008, 03:58 am

kuya hindi po ito drop D.... napanood ko po sila ng live... iba rin po yung notes pag standadr tuning pero ayos namn...

guest
You may want to rate the tab now too:
select rating
Please do not post tabs as comments. Select "correction" instead!