Oops, an error
Loading. Please wait.

Another Minute Until Ten Bass

version 2
version 2

Whole song

684 views 6 this week
no commentswrite comment
1 2 3 4 5
3 more votes to show rating
add to favorites
×
Save as Personal and add changes to this tab that will be seen only by you. Learn more ›
×
You can save this tab as Personal to edit and correct it or add notes. All changes will be seen only by you. Learn more »
save as personal
new!
launch autoscroll
font size
0
reset
guitar tuner
Autoscroll
slow
fast
+/-
esc
set tempo
stop
Difficulty
novice
Another Minute Until 10 Bass Tab by Typecast

this s0ng e..tnur0 lng skEn ng mEnt0r ko..c em0n..wahehe..mayupit na ta0
un mga ts0ng..hehehe..

Intro:
(tymingan nyo nlang un sa bgsakan...)
G|---------------------------------------------------------------|
D|---------------------------------------------------------------|
A|------------------------------------3-3-3-3-3-3-3-5-5-5-5-5----| 2x
E|-3-2-0-0-0-0-0-0-0--1/2--0-0-0--5-5----------------------------|

e2 ung part na bg0 mg verse...tyming lng mga tol...
G|--------------------------------------|
D|--------------------------------------|
A|-77-77--77-77-77--77-77-77--77-77-77--|
E|--------------------------------------|

Verse:the sun is shinning down on you...
G|-------------------------|
D|-------------------------|
A|-3-3-3-3-0-0-0-0--77-77--| 2x
E|-------------------------|

try..try me....
G|--------------------------------------|
D|--------------------------------------|
A|-000000000-333333333------------------| 2x
E|---------------------00-00-00--00-00--|

*intro
*verse 

outro:
G|-------------------------------------------|
D|-------------------------------------------|
A|-3-2-3-5-3--1-3-5-0--0----3333333-5555555--|
E|-------------------------------------------|

*intro

dats it folks...enj0y ny0 un tab k0..
tska..bsta tymingan my0 nlang ng mbte..mdali lng nman e2 eh...
pang-n0vice lng 2lad k0...nyahaha..thx thx

any comments,suggesti0ns & vi0lent reacx0n..
contact me..
09172518187..o kea sa email nyo aq sa 
friendster q...mabel_laconsay@yahoo.com
thx thx uet!!! piZawT!!!!
MGA TGA Q.C. JAN!!! BUMIBILI PLA AKO NG BASS GEETAR..TSKA BFX..
e0w nga pla sa kbnda k0ng tang eena!!! tska ke >grey seyer< wakekek...\m/








Suggest correction
Give kudos to tab author, rate the tab!
1 2 3 4 5
comments
print report bad tab
guest
Wanna post a correction for this tab? Suggest correction