Oops, an error
Loading. Please wait.

Another Minute Until Ten Tab

version 4
version 4

Whole song

10 views 1 this week
no commentswrite comment
1 2 3 4 5
3 more votes to show rating
add to favorites
launch autoscroll
font size
0
reset
how to read this tab
guitar tuner
Autoscroll
slow
fast
+/-
esc
set tempo
stop
Help us to improve Ultimate-Guitar.com Take our survey!
×
Author
Difficulty
intermediate
About this tab version
This is what i heard from Typecast's live version of this song katunog naman sana makatulong. thanks. Was this info helpful? Yes No
First time ko mag-submit ng tab. 
ito yung nadidinig ko kapag live nila tinutugtog at kung pano ko rin nakitang tinutugtog nila
katunog naman :)
pa rate if nakatulong. Thanks!
Intro

Gtr 1 [Steve]

[Intro][Clean]
e|----------------------7-----------------------------------7-------------|
B|----8---10-8------7h8---8---------------8---10-8------7h8---8-----------|
G|------7------7--7---------7---------------7------7--7---------7---------|
D|---------------------------- 2x then -----------------------------------|
A|--7-----------------------------------0---------------------------------|
E|------------------------------------------------------------------------|

e|------------------------------------------------------------------------|
B|---------------------8---10-8-------------------------------------------|
G|-----------------------7------------------------------------------------| last part
D|------------------------------------------------------------------------|
A|-------------------0----------------------------------------------------|
E|------------------------------------------------------------------------|

 [Intro Pt.2][Distortion]
e|------------------------------------------------------------------------|
B|----------3-3----0-0----------------------------------------------------|
G|--------------2---------------------------------------------------------|
D|-------------------------5-5-----7----------9------9/10-10-10-10-~~~~~~~|  2x
A|---------------------5h7-------5-----9-10-9---10-9-9/10-10-10-10-~~~~~~~|
E|--3-2-0-0--------------------7-----7---------------7/8--8--8--8-~~~~~~~~|
    . .                                .    .

[Intro Pt.3][Distortion]
e|---------------------------------------|
B|----7-7---7-7---7-----7-7---7-7----7*--|
G|----7-7---7-7---7-----7-7---7-7--------|
D|----5-5---5-5---5-----5-5---5-5--------|
A|-0-0---0-0---0-0---0-0---0-0----0-0----|
E|-0-0---0-0---0-0---0-0---0-0----0-0----|
   . .   . .   . .   . .   . .    . .

e|------------------------|
B|----7-7---7-7---7h9p7---|
G|----7-7---7-7-----------|
D|----5-5---5-5-----------|
A|-0-0---0-0---0-0--------|
E|-0-0---0-0---0-0--------|
   . .   . .   . .

e|------------------------|
B|----7-7---7-7---7-------|
G|----7-7---7-7---7-------|
D|----5-5---5-5---5-------|
A|-0-0---0-0---0-0--------|
E|-0-0---0-0---0-0--------|
   . .   . .   . .   


[Verse]
e|------------------------------------------------------------|
B|------------------------------------------------------------|
G|-5-5-5-5---------4-5-7-5-4-------7-7---------7-7-7-7-7-7-7--|
D|-5-5-5-5--7-7-7--------------5-5--------5-5-----------------|
A|-3-3-3-3--7-7-7-----------7-7--------7-7--------------------|
E|----------5-5-5---------------------------------------------|
                            . .        . . 
  

[Chorus]
e|----------------------|         e|------------------------|
B|-2-2-2-2-2------------|         B|----7-7---7-7---7-------|
G|-2-2-2-2-2--5-5-5-5-5-|         G|----7-7---7-7---7-------|  2x
D|-2-2-2-2-2--5-5-5-5-5-|  then   D|----5-5---5-5---5-------| 
A|------------3-3-3-3-3-|         A|-0-0---0-0---0-0--------|
E|----------------------|         E|-0-0---0-0---0-0--------|
                                     . .   . .   . .
[Chorus Pt.2]
e|---------------------------------------------------------------------------------|
B|---------------------------------------------------------------------------------|
G|-9-9-9-9-9-/11-11-11-11-12-/12-12-12-12-14-/14-16-/16-16-16-16-17-17-17-17-17-17-| pakinggan na lang 
D|-x-x-x-x-x--x--x--x--x--x---x--x--x--x--x---x--x---x--x--x--x--x--x--x--x--x--x--| po timing 2nd
A|-7-7-7-7-7-/9--9--9--9--9--/10-10-10-10-10-/12-12-/14-14-14-14-14-15-15-15-15-15-| part ng chorus. 
E|---------------------------------------------------------------------------------|

[Repeat Intro Pt.2]
[Repeat Intro Pt.3]
[Repeat Verse]
[Repeat Chorus]
[Repeat Chorus Pt.2]
[Repeat Intro Pt.1]

[Filler]

e|---------------------------------------------------------------------------------|
B|---------------------------------------------------------------------------------|
G|-5-5-5-5-5-5-5-5-5-5-5-5-5-5-5-5--7-7-7-7-7-7-7-7-7-7-7-7-7-7-7-7-7-7-7-7---9(h)-|
D|-5-5-5-5-5-5-5-5-5-5-5-5-5-5-5-5--7-7-7-7-7-7-7-7-7-7-7-7-7-7-7-7-7-7-7-7--9(h)--|
A|-3-3-3-3-3-3-3-3-3-3-3-3-3-3-5-5--5-5-5-5-5-5-5-5-5-5-5-5-5-5-5-5-5-5-5-5--------|
E|---------------------------------------------------------------------------------|

[Repeat Intro Pt.2]


| /  slide up
| \  slide down
| h  hammer-on
| p  pull-off
| ~  vibrato
| * pitch harmonic
| . Mute note
| (h) harmonic






Suggest correction
Give kudos to tab author, rate the tab!
1 2 3 4 5
comments
print report bad tab
guest
You may want to rate the tab now too:
select rating
Wanna post a correction for this tab? Suggest correction