Oops, an error
Loading. Please wait.

Assertion Bass

361 views 1 this week
no commentswrite comment
1 2 3 4 5
3 more votes to show rating
add to favorites
launch autoscroll
font size
0
reset
guitar tuner
×
Best way to learn
"Assertion"
Autoscroll
slow
fast
+/-
esc
set tempo
stop
Author
Difficulty
Tuning
novice
D A D G
Assertion Bass Tab by Typecast
For Correction Pleasse mail me at agulto14@yahoo.com or reander_agulto14@yahoo.com

Tuning: Drop D

Intro:
G|--------------------------------------------------------|
D|--------------------------------------------------------|
A|--------------------------------------------------------|	2x
D|--2-2--3-3-3-3-3-3-3-3-3--7-7-7-7-7-7-7-7-7-------------|

Verse:
G|----------------------------------------------------|
D|----------------------------------------------------|
A|----------------------------------------------------|	2x
D|--2-2--3-3-3-3-3-3-3-3-3--7-7-7-7-7-7-7-7-----------|

 Pause dito
Verse2:
G|--------------------------------------------------------------------|
D|--------------------------------------------------------------------|
A|--------------------------------------------------------------------|    2x
D|--2-2--3-3--3-3--3-3--3-3---7-7--7-7--7-7--7-7--7-7-----------------|

Chorus:
G|-------------------------------------------------------|
D|-------------------------------------------------------|
A|--3---5------------3---5-------------------------------|
D|-----------7---3-------------7----3-----3-3------------|

Back to Intro
Back to Verse
Back to Chorus
Suggest correction
Give kudos to tab author, rate the tab!
1 2 3 4 5
comments
print report bad tab
guest
You may want to rate the tab now too:
select rating
Wanna post a correction for this tab? Suggest correction