Oops, an error
Loading. Please wait.

Assertion Tab

version 2
version 2

Whole song

2,202 views 3 this week
no commentswrite comment
1 2 3 4 5
excellent!
x 6
add to favorites
launch autoscroll
font size
0
reset
how to read this tab
guitar tuner
Tab Pro tools
  • play this tab
  • loop segment
  • change instrument
  • show fretboard
  • metronome
×
Best way to learn
"Assertion"
Autoscroll
slow
fast
+/-
esc
set tempo
stop
Contributor
Title:Assertion
Artist:Typecast
Album:The infatuation is always there
Composer:Melvin Macatiag
Tabbed By:Albert Lactaoen
          Napoleon Rodriguez
          Edizon Regodon-ang gumawa nito =)

ETO NA PO UNG TAMANG VERSION,KAMI DIN UNG SA UNA KASO KULANG UN EH
PKI INTINDI N LNG PO,IM SURE TAMA  PO ITO,SALAMAT PO! x,PEACE,x

Tuning:drop D (DADBGe)

Intro:
e---------------------------|
B---------------------------|
G--------0----0----0---0----|
D-------2----2----2---2-----| (2x)
A----------------0---0------|
D-222-3-----3---------------|

Riff1: (strumming not shown)
e--------------------------|
B--------------------------|
G---------5-4--------------|
D-2-3333--3-2--2-3333------|
A-2-3333--3-2--2-3333------|
D-2-3333-------2-3333------|

and then: /-slide \-back slide
e-------------------------------|
B-------------------------------|
G-5-/-7-/-9-/-10-\-9-\-7-\-4----|
D-3-/-5-/-7-/-8--\-7-\-5-\-2----|
A-3-/-5-/-7-/-8--\-7-\-5-\-2----|
D-------------------------------|

then
Verses: (strumming not shown)

e------------------------------------------------------------|
B------------------------------------------------------------|
G------------------------------------------------------------|
D-2-33333-----------------77777-------3333------------77777--|
A-2-33333-----------------77777-------3333------------77777--|
D-2-33333-----------------77777-------3333------------77777--|
    unexplained sight whenever....  this unfilfilled..of moment comes around

e--------------------------------------------|
B--------------------------------------------|
G--------------------------------------------|
D-2-33333-----77777----3333-----7777---------|
A-2-33333-----77777----3333-----7777---------|
D-2-33333-----77777----3333-----7777---------|
    impulsive scene....over and over again

strum once:
e-----------------------------------------|
B-----------------------------------------|
G-5----------7----------------------------|
D-3----------5-----7--------3-------------|
A-3----------5-----0--------0-------------|
E------------------7--------3-------------|
  i wonder..if i..present...to you

e-------------------------------------------|
B-------------------------------------------|
G-5----------7------------------------------|
D-3----------5-----7--------------777*------|
A-3----------5-----0--------------000*------|
E------------------7--------------777*------|
 i dont.....have...words to say...
*ung last chord strum nyo hanggang pumasok sa "anyway"

and then..(strumming not shown)

e--------------------------|
B--------------------------|
G---------5-4--------------|
D-2-3333--3-2--2-3333------|
A-2-3333--3-2--2-3333------|
D-2-3333-------2-3333------|
anyway!...

tapos eto ulit..
/-slide \-back slide

e-------------------------------|
B-------------------------------|
G-5-/-7-/-9-/-10-\-9-\-7-\-4----|
D-3-/-5-/-7-/-8--\-7-\-5-\-2----|
A-3-/-5-/-7-/-8--\-7-\-5-\-2----|
D-------------------------------|

tapos verse 2 na...(strumming not shown)

e--------------------------------------------------------------|
B--------------------------------------------------------------|
G--------------------------------------------------------------|
D-2-33333-----------------77777-------3333------------77777----|
A-2-33333-----------------77777-------3333------------77777----|
D-2-33333-----------------77777-------3333------------77777----|
    and affirmition.......denies.....take back.......left for me..


e------------------------------------------------------------|
B------------------------------------------------------------|
G------------------------------------------------------------|
D-2-33333-----------------77777-------3333------------77777--|
A-2-33333-----------------77777-------3333------------77777--|
D-2-33333-----------------77777-------3333------------77777--|
    why cant you..........feel........feeling now............

strum once:
e-----------------------------------------|
B-----------------------------------------|
G-5----------7----------------------------|
D-3----------5-----7--------3-------------|
A-3----------5-----0--------0-------------|
E------------------7--------3-------------|
  i wonder..if i..present...to you

e-------------------------------------------|
B-------------------------------------------|
G-5----------7------------------------------|
D-3----------5-----7--------------777*------|
A-3----------5-----0--------------000*------|
E------------------7--------------777*------|
 i dont.....have...words to say...
*ung last chord strum nyo hanggang pumasok sa "anyway"

tapos guitar1
e----------------------------------|
B----------------------------------|
G--------------0----0-----0---0----|
D-------------2----2----2---2------|
A---------------------0---0--------|
D-------222--3---3-----------------|
 anyway...   (tuloy tuloy lang)

e----------------------------------|
B----------------------------------|
G--------------0----0-----0---0----|
D-------------2----2----2---2------|
A---------------------0---0--------|
D-------222--3---3-----------------|
  could you even pretend that you want me?? (tuloy tuloy lang)

tapos papasok ang guitar 2
(strumming not shown)
e--------------|
B--------------|
G--------------|
D-2--333--777--|
A-2--333--777--|
D-2--333--777--|

pakinggan nyo na lng basta yan combination ng 2 guitars
tapos maiiwan tong guitar 2 puro ganto lang

e--------------|
B--------------|
G--------------|
D-2--333--777--|
A-2--333--777--|
D-2--333--777--|
    you want me!.....(tuloy mo lng habang sasabayan ng lead )

tapos eto ung guitar1 o ung lead para sa last part
strum once lang po..
e----------------------I--------------I---------|
B----------------------I--------------I---------|
G-5-7-9-10-12-11-9-7---I-4-6-8-10-----I--4-6-8--|
D-3-5-7-9--11-9--7-5---I-2-4-6-8--(x3)I--2-4-6--|
A-3-5-7-9--11-9--7-5---I-2-4-6-8------I--2-4-6--|
D----------------------I--------------I---------|
                         eto lang po
                         ang 3 times

AT ANG PANG FINALE..

e---------|
B---------|
G------5--|
D-22-0-3--|
A-22-0-3--|
D-22-0----|


       -end-
---------------------------------------------
ETO NA ANG TAMANG VERSION SO PARA DUN SA LAGING NAGRARATE NG 1 STAR
ABA! PAG ARALAN MO MUNA! BAGO KA MAGRATE!
SA MGA TAGA SAN PEDRO LAGUNA! ASTIG TAYO!
LALO NA SI CHI NG TYPECAST! YI! OLRYT!

para sa bayolenteng reaksyon,tumawag sa 1-908-1-BULAGA toll free hotline
LOVE YOU BIE!
comments
print report bad tab
I want to post or [tab]
guest
You may want to rate the tab now too:
select rating
Please do not post tabs as comments. Select "correction" instead!