Oops, an error
Loading. Please wait.

Bad News Brown Tab

version 2
version 2

Whole song

583 views 1 this week
no commentswrite comment
1 2 3 4 5
please rate
add to favorites
launch autoscroll
font size
0
reset
how to read this tab
guitar tuner
Autoscroll
slow
fast
+/-
esc
set tempo
stop
Help us to improve Ultimate-Guitar.com Take our survey!
×
Difficulty
intermediate
Song: Bad News Brown
Artist: Typecast
Tabbed by: Sungao & bARnEy

sungao_punk@yahoo.com   09183140928
excreta_666@yahoo.com   09193044938

Tuning: Drop D [D - A - D - G - B - E]

Intro

Both Guitars
|----------------------------|
|----------------------------|
|----------------------------|
|--4-4----0-0-0----2-2-2-2---| X3
|--4-4----0-0-0----2-2-2-2---|
|--4-4----0-0-0----2-2-2-2---|

Guitar2 in 3rd round
|------------------|
|---9--10-10--9----|
|---x---x--x---x---|
|---6---7--7---6---|
|------------------|
|------------------|

Guitar1
|--------------------------------------|
|--------------------------------------|
|--------------------------------------|
|---9-p-7-7-p-6-6-p-2-2-h-4------------|
|--------------------------------------|
|--------------------------------------|

Guitar2
|--------------------------------------|
|--------------------------------------|
|---7-p-6-6-p-4-4-p-1-1-h-2------------|
|--------------------------------------|
|--------------------------------------|
|--------------------------------------|

Repeat Intro

Verse

Both Guitars
|------------------------------------|
|------------------------------------|
|------------------------------------|
|---4--------0--------4---------0----|
|---4--------0--------4---------0----|
|---4--------0--------4---------0----|

Guitar1 PM
|------------------------------------|
|------------------------------------|
|------------------------------------|
|---4--------0--------4---------0----|
|---4--------0--------4---------0----|
|---4--------0--------4---------0----|

Guitar2 PM
|--------------------------------|
|------------------------5-------|
|---------------------------6----|
|-------6--6-h-7----6--7---------|
|--4-4--4-------4-4--4-----------|
|--4-4--4-------4-4--4-----------|

|--------------------------------|
|------------------------5-------|
|---------------------------6----|
|-------6--6-h-7----6--7---------|
|--0-0--0-------0-0--0-----------|
|--0-0--0-------0-0--0-----------|

Pre Chorus

Both Guitars
|----------------------|
|----------------------|
|----------------------|
|------0---------------|
|------0--let ring-----|
|------0---------------|

Chorus

Guitar1
|-------------------------------------|
|-------------------------------------|
|-----------------7-7-7-------9-9-9---|
|--4-4-4-4---0-0--x-x-x--0-0--x-x-x---|
|--4-4-4-4---0-0--5-5-5--0-0--7-7-7---|
|--4-4-4-4---0-0-----------0-0--------|

|----------------------|
|----------------------|
|----------------------|
|--4-4-4-4--0-0-0-0----|
|--4-4-4-4--0-0-0-0----|
|--4-4-4-4--0-0-0-0----|
             PM
Guitar2
|--------------------------------------|
|--------------------------------------|
|-----------------7-7-7-------6-6-6----|
|--4-4-4-4---0-0--x-x-x--0-0--x-x-x----|
|--4-4-4-4---0-0--5-5-5--0-0--4-4-4----|
|--4-4-4-4---0-0---------0-0-----------|

|----------------------------------------|
|----------------------------------------|
|------------9-9-9--4-4---6-6---7---6----|
|--4-4-4-4---x-x-x--x-x---x-x---x---x----|
|--4-4-4-4---7-7-7--2-2-\-4-4-\-5-/-4----|
|--4-4-4-4-------------------------------|

Repeat Verse
Repeat Chorus

Bridge

Both Guitars
|-------------------------------------------------|
|-------------------------------------------------|
|--4-4-4-4--6-6-6-6--7-7-7-7--6-6----11-11-11-----|
|--x-x-x-x--x-x-x-x--x-x-x-x--x-x----x---x---x----| X2
|--2-2-2-2--4-4-4-4--5-5-5-5--4-4-\--9---9---9----|
|-------------------------------------------------|

Guitar2 Lead
|--------------------------|
|--------------------------|
|--9-----7-6-------6-------|
|----7-9------7-9----------| X4
|--------------------------|
|--------------------------|

Repeat Intro


            "un mga indi marunong magbasa ng tabs cenxa n kc
             kordz lang un nigawa ko eh.. buti nga senio..
             nyenyenyenyenye.."

sungao_punk@yahoo.com   09183140928
excreta_14@yahoo.com    09193044938
Suggest correction
Give kudos to tab author, rate the tab!
1 2 3 4 5
comments
print report bad tab
guest
You may want to rate the tab now too:
select rating
Please do not post tabs as comments. Select "correction" instead!