Oops, an error
Loading. Please wait.

Blanket Tab

1,078 views 1 this week
1 commentread comment
1 2 3 4 5
3 more votes to show rating
add to favorites
launch autoscroll
font size
0
reset
how to read this tab
guitar tuner
Autoscroll
slow
fast
+/-
esc
set tempo
stop
Help us to improve Ultimate-Guitar.com Take our survey!
×
blanket - typecast

intro:


E|--------------5---------|
B|-----7---------7----5---|
G|------7--------------7--|
D|------------------------|
A|--5-----5555-----5------|
D|------------------------|

    .     ....     .


E|------------------------5----------|
B|----------7------5-------7-----5---|
G|-----------7------7-------------7--|  2x
D|-----------------------------------|
A|--55555-------5------5------5------|
D|-----------------------------------|

    .....       .      .      .


E|---------------------------14--------|
B|----------7--------5----------15-----|
G|-----------7--------7------------14--|
D|-------------------------------------|
A|--55555---------5------55------------|
D|-------------------------------------|

    .....         .      ..


E|----------------------------------------------------------------------|
B|-------------------------------------------15-------------------------|
G|-------------------5~-5~----------------------14--4---------------7h9-|
D|-------4h5p4-------5~-5~-------4h5p4--------------4--5--------7h9-----|
A|--5-7---------5-7--3~-3~--5-7---------5-7---------2--5--4-5h7---------|
D|-----------------------------------------------------5----------------|


E|------------------14------------------------------------------------|
B|--------------------15----------------------------------------------|
G|-----------------------------------------5~-5~--4---------------7h9-|
D|-------4h5p4-----------------4h5p4-------5~-5~--4--5--------7h9-----|
A|--5-7---------5-7-------5-7---------5-7--3~-3~--2--5--4-5h7---------|
D|---------------------------------------------------5----------------|

E|----------------------------------------------|
B|--7--7---8-7---5----7/8-7-5-7--8-7-5-7---5----|
G|---9--9------7----7--------------------7---7--|
D|----------------------------------------------|
A|----------------------------------------------|
D|----------------------------------------------|


verse:


sleeping side to side you're a breath away
im so close to you but there's nothing left to say


E|------------------|
B|------------------|
G|------------4-----|
D|------------4--5--|
A|--7--12--9--2--5--|
D|---------------5--|


i smell love from your hair i hope those are for me
i could kiss you but im scared of everything should i be?


E|----------|
B|----------|
G|----------|
D|--2--4-5--|
A|--2--4-5--|
D|--2--4-5--|


tapos pagkatapos nito..


B|--15~--|

chorus:


no blankets outside


E|----------------------------------------------------------------------|
B|-------------------15-15----------------------------------------------|
G|-------------------------------------------5~-5~--4---------------7h9-|
D|-------4h5p4-------------------4h5p4-------5~-5~--4--5--------7h9-----|
A|--5-7---------5-7---------5-7---------5-7--3~-3~--2--5--4-5h7---------|
D|-----------------------------------------------------5----------------|


no blankets outside

E|------------------14-14---------------------------------------------|
B|-----------------------------------------15-15----------------------|
G|------------------------------------------------4---------------7h9-|
D|-------4h5p4-----------------4h5p4--------------4--5--------7h9-----|
A|--5-7---------5-7-------5-7---------5-7---------2--5--4-5h7---------|
D|---------------------------------------------------5----------------|

before verse 2:


E|----------------------------------5--------|
B|--7-5-8-7-5---5--77-5-7-8-77-5-77---7-8----|
G|------------7---------------------------7--|
D|-------------------------------------------|
A|-------------------------------------------|
D|-------------------------------------------|


verse 2:


im watching you sleep i can't touch your hair
when you go ill miss you so i'll asked you not to leave


E|------------------|
B|------------------|
G|------------4-----|
D|------------4--5--|
A|--7--12--9--2--5--|
D|---------------5--|


tapos nyan..


B|--15~--|


chorus:


no blankets outside

E|--------------------------------------------------------------------|
B|-----------------------------------------15-15----------------------|
G|------------------------------------------------4---------------7h9-|
D|-------4h5p4-----------------4h5p4--------------4--5--------7h9-----|
A|--5-7---------5-7--7-7--5-7---------5-7---------2--5--4-5h7---------|
D|---------------------------------------------------5----------------|


no blankets outside

E|--------------------------------------------------------------------|
B|-----------------------------------------15-------------------------|
G|--------------------------------------------14--4---------------7h9-|
D|-------4h5p4-----------------4h5p4--------------4--5--------7h9-----|
A|--5-7---------5-7--7-7--5-7---------5-7---------2--5--4-5h7---------|
D|---------------------------------------------------5----------------|


bridge:


E|------------------------|
B|------------------------|
G|------------------------|
D|---------0---------0-00-|
A|--5-4-2--0--5-4-2--0-00-|
D|---------0---------0-00-|


E|---------------------------------------|
B|---------------------------------------|
G|--777--999--11--11--11--999--666--777--|
D|--xxx--xxx--x---x---x---xxx--xxx--xxx--|
A|--555--777--9---9---9---777--444--555--|
D|---------------------------------------|


and to you mean everything to me
i'll wait even if it takes forever


E|------------------------------------------------------|
B|------------------------------------------------------|
G|--5--4------------------------------------------------|
D|--5--4---------0---------0-00---------0---------0-00--|
A|--3--2--5-4-2--0--5-4-2--0-00--5-4-2--0--5-4-2--0-00--|
D|---------------0---------0-00---------0---------0-00--|


outro:


E|--------|
B|--------|
G|--5--4--|  2x
D|--5--4--|
A|--3--2--|
D|--------|


E|---------------------------------------------------|
B|---------------------------------------------------|
G|--7-9-11-9---7-6-7-9-11-9-7---9-11-12-11-12-11-14--|
D|--x-x-x--x---x-x-x-x-x--x-x---x-x--x--x--x--x--x---|
A|--5-7-9--7---5-4-5-7-9--7-5---7-9--10-9--10-9--12--|
D|---------------------------------------------------|

E|-----------------5----------------|
B|----------5-------7-----5---------|
G|------7----7-------------7-----7--|
D|----------------------------------|
A|--55---------5------5-------55----|
D|--------5-------------------------|

    ..    .    .      .       ..

E|-------------------5----------------|
B|-----7------5-------7-----5---------|
G|------7------7-------------7-----7--|  2x
D|------------------------------------|
A|--5------5------5------5------55----|
D|------------------------------------|

    .      .      .      .      ..


E|---------------------14------|
B|-----7------5----------15----|
G|------7------7-----------14--|
D|-----------------------------|
A|--5------5------55-----------|
D|-----------------------------|

    .      .      ..


E|-------------------|
B|-------------------|
G|--7\6-4/6-9\7-4/7--|  4x
D|--x\x-x/x-x\x-x/x--|
A|--5\4-2/4-7\5-2/5--|
D|-------------------|


E|----------5--------|
B|--7---5-----7-5----|
G|----7---7-------7--|  4x
D|-------------------|
A|-------------------|
D|-------------------|


E|-----|
B|-----|
G|-----|
D|--0--|
A|--0--|
D|--0--|

pakinggan nyo ung kanta para makuha nyo.. kung my mali sa tab na ginawa ko eto email add 
what_is_a@yahoo.com.. thanks! ^_^
Suggest correction
Give kudos to tab author, rate the tab!
1 2 3 4 5
comments
print report bad tab
1 comment total.
0 reply
phenom14 61 Mar 27, 2007 02:36 PM

dun sa part na 'to:

|--14--------|
|-----15-----|
|--------14--|
|------------|
|------------|
|------------|

try mo 'to:

*-harmonics

|----------|
|--7*------|
|----7*----|
|------7*--|
|----------|
|----------|

tingin ko mas madali 'yung ganyan kasi hindi ka na lalayo dun sa d chord mo...

guest
You may want to rate the tab now too:
select rating
Wanna post a correction for this tab? Suggest correction