Oops, an error
Loading. Please wait.

Boston Drama Bass Tab

version 1
version 1

Whole song

Interactive

4,314 views 12 this week
1 commentread comment
1 2 3 4 5
excellent!
x 3
add to favorites
launch autoscroll
font size
0
reset
guitar tuner
Autoscroll
slow
fast
+/-
esc
set tempo
stop
Help us to improve Ultimate-Guitar.com Take our survey!
×
Author
Typecast
Boston Drama
Every Moss and Cobweb
tabbed by: paramore_fans@yahoo.com

Tuning: Drop D

Intro:
G|---------------------------------|
D|---------------------------------|
A|---------------------------------| (x8)
D|-5-5-5-5-5-5-5-5-4-4-4-4-4-4-4-4-|


Verses:
G|------------------------------------------------|
D|------------------------------------------------|
A|--------------------4/5--5/7--7/9--9/12---------| (x2)
D|-5-5-5-5-5-5-5-5--0---------------------0-0-0-0-|


Refrain:
G|-----------------------------------------------------------------|
D|-----------------------------------------------------------------|
A|-2-2-2-2-2-2-2-2-----------------2-2-2-2-2-2-2-2-----------------|
D|-----------------0-0-0-0-0-0-0-0-----------------5-5-5-5-5-5-5-5-|


Chorus:
G|-----------------------------------------------------------------|
D|-----------------------------------------------------------------|
A|-------------------------------------------------2-2-2-2-0-4-0-4-| (x2)
D|-0-0-0-0-0-0-0-0-4-4-4-4-4-4-4-4-5-5-5-5-5-5-5-5-----------------|


Post Chorus:
G|---6/7---7\6---11/14---7\6-|
D|-0-----0-----0-------0-----|
A|---------------------------|
D|---------------------------|


Bridge:
G|---------------------------|
D|---------------------------|
A|-7---5---4---3-------------|
D|-----------------2---4---5-|
then
G|---9----9----9\7----6-----4-------------------4-|
D|-0----0----0------4----7--5--2--4--0----4---4---|
A|--------------------------------------2---2-----| (repat many times)
D|------------------------------------------------|

(Repeat Intro)
Suggest correction
What's this?
You can suggest a correction to this tab. Community and Mods will review your correction and vote to approve or reject it.
comments
We did not receive enough feedback on this tab! Please rate:
print report bad tab
1 2 3 4 5
1 comment total.
0 reply
arcwarrior 455 wrote on July 22 2008, 09:49 am

all-around.

guest
You may want to rate the tab now too:
select rating
Please do not post tabs as comments. Select "correction" instead!