Oops, an error
Loading. Please wait.

Boston Drama Tab

version 2
version 2

Live

Interactive

786 views 6 this week
no commentswrite comment
1 2 3 4 5
please rate
add to favorites
launch autoscroll
font size
0
reset
how to read this tab
guitar tuner
Autoscroll
slow
fast
+/-
esc
set tempo
stop
Help us to improve Ultimate-Guitar.com Take our survey!
×
Author
The Boston Drama
Typecast
Every Moss And Cobweb

Ang Pinagkaiba ng live at studio ay mas kaunti yung gagawin ni steve at sa solo
si pacoy lang ang nag gigitara

Gtr.1:Steve Badiola/Rhythm (DADGBE)
Gtr.2:Frank "Pacoy" Fletchero / Lead (DADGBE)

Intro:
Gtr.2:
|----------------------------------------------------|
|----------------------------------------------------|
|-2-4-2-0-------------2-4-2-0------------------------| 5x
|---------5-5-5-5-5-5---------4-4-4-4-4-4------------|
|---------5-5-5-5-5-5---------4-4-4-4-4-4------------|
|---------5-5-5-5-5-5---------4-4-4-4-4-4------------|

Gtr.1:
|----------------------------------------------------|
|----------------------------------------------------|
|----------------------------------------------------| 5x
|-4-5-4-0-5-5-5-5-5-5-4-5-4-0-4-4-4-4-4-4------------|
|---------5-5-5-5-5-5---------4-4-4-4-4-4------------|
|---------5-5-5-5-5-5---------4-4-4-4-4-4------------|

Verse:
Gtr.2:
|-----------------------------------------------------------------------|
|-----------------------------------------------------------------------|
|------------------------------------7-7-7/9-9-9/6-7-6------------------|
|-5555555555555555555555555555555555-7-7-7/9-9-9/6-7-6------------------|
|-5555555555555555555555555555555555-5-5-5/7-7-7/4-5-4------------------|
|-5555555555555555555555555555555555------------------------------------|

|-----------------------------------------------------------------------|
|-----------------------------------------------------------------------|
|------------------------------------7-7-7/9-9-9/6-7-6------------------|
|------------------------------------7-7-7/9-9-9/6-7-6------------------|
|------------------------------------5-5-5/7-7-7/4-5-4------------------|
|-----------------------------------------------------------------------|

Pre-Chorus:
Gtr.2:
|-----------------------------------------------------------------------|
|-----------------------------------------------------------------------|
|-6-6-6h7-------------6-6-6h7-6-----------------------------------------|
|---------4-4-4h5-4------------------7-7-7/9-9-9/6-7-6------------------|
|------------------------------------7-7-7/9-9-9/6-7-6------------------|
|------------------------------------5-5-5/7-7-7/4-5-4------------------|
|-----------------------------------------------------------------------|

Gtr.1:
|-----------------------------------------------------------------------|
|-----------------------------------------------------------------------|
|------------------------------------7-7-7/9-9-9/6-7-6------------------|
|------------------------------------7-7-7/9-9-9/6-7-6------------------|
|------------------------------------5-5-5/7-7-7/4-5-4------------------|
|-----------------------------------------------------------------------|

Gtr.2:
|-----------------------------------------------------------------------|
|-----------------------------------------------------------------------|
|-6-6-6h7-------------6-6-6h7-6-----------------------------------------|
|---------4-4-4h5-4-----------------55555555555555555555555-------------|
|-----------------------------------55555555555555555555555-------------|
|-----------------------------------55555555555555555555555-------------|

Gtr.1
|-----------------------------------------------------------------------|
|-----------------------------------------------------------------------|
|-----------------------------------------------------------------------|
|-----------------------------------55555555555555555555555-------------|
|-----------------------------------55555555555555555555555-------------|
|-----------------------------------55555555555555555555555-------------|

Chorus:
Gtr.1:
|-----------------------------------------------------------------------|
|-----------------------------------------------------------------------|
|-----------------------------------------------------------------------|2x
|-777777777777777777777777777777777777777777777777777777777777777777777-|
|-555555555555555555444444444444455555555555444444444444444455555555555-|
|-----------------------------------------------------------------------|

Gtr.2
|-----------------------------------------------------------------------|
|-----------------------10-10-10----------------------------------------|
|-999999999999-7777-6666--6--6--6-2222-4444-----------------------------| 2x
|-------------------------------------------2222-4444-------------------|
|-----------------------------------------------------4-5--------0-2-0--|
|-----------------------------------------------------------------------|

Interlude:
Gtr.1:
|------------------|
|------------------|
|------------------|
|-----2-4-5-4------|
|-4-5---------4-5--|
|------------------|

Gtr.2:
|------------------|
|------------------|
|------------------|
|---------2-4------|
|-------------7-6--|
|------------------|

Repeat Verse
Repeat Pre Chorus
Repeat Chorus

Interlude 2:
Gtr.1:
|--------------------------------------------------------------------------|
|--------------------------------------------------------------------------|
|--------------------------------------------------44444444|---------------|
|-2--------0-------2-------22222222444444445555555544444444444444555555----|
|-2--------0-------2-------22222222444444445555555522222222444444555555----|
|-2--------0-------2-------222222224444444455555555--------444444555555----|

Gtr.2:
|---------------------------------------------------------------------------|
|---------------------------------------------------------------------------|
|---------------------------------------------------------------------------|
|---5-4------5-4----5-4-----------------------------44444444----------------|
|-------5-5-----5-4-----5-2-22222222444444445555555544444444444444555555----|
|---------------------------22222222444444445555555522222222444444555555----|
|---------------------------222222224444444455555555--------444444555555----|

Instrumental:
Gtr.2:
|--------------------------------------------------------------------------|
|--------------------------------------------------------------------------|
|-9-9-----9-----7-6-6-----6-----6---2-4-----------6-----6-----66s76--------| 3x
|-7---7-----7---7-7---7-----7---7-------2-4---------4-----4--------6-------|
|-5-----5-----5-5-5-----5-----5-5-----------4-5-5-----4-----4--------------|
|--------------------------------------------------------------------------|

then...

|----------------------------------------------------------------------------|
|----------------------------------------------------------------------------|
|-9999999-77-6666666--2222-4444--------------------------6------6----66s76---|
|-7777777-77-7777777--0000-0000--2222-4444-----------------4------4--------6|
|-5555555-55-5555555-------------0000-0000--4444-5555--4-----4------4--------|
|----------------------------------------------------------------------------|
Gtr.1:
|-99------------|
|----1010-------|
|---------------| 12x
|---------11-12-|
|---------------|
|---------------|

Gtr.2:
|----------------------------------------------------------|
|----------------------------------------------------------|
|-141414-9-11111111111111111111-666-777-999-11111111111111-| 4x
|-141414-9-11111111111111111111-666-777-999-11111111111111-|
|-121212-7-9999999999999999999--444-555-777-9999999999999--|
|----------------------------------------------------------|

Both Gtrs:
|-------------------|
|-------------------|
|-7-9-7-5-7-9-5-7-9-|
|-7-9-7-5-7-9-5-7-9-| 2x
|-5-7-5-3-5-7-3-5-7-|
|-------------------|

Outro:
Gtr.2:
|----------------------------------------------------|
|----------------------------------------------------|
|-2-4-2-0-------------2-4-2-0------------------------| 3x
|---------5-5-5-5-5-5---------4-4-4-4-4-4------------|
|---------5-5-5-5-5-5---------4-4-4-4-4-4------------|
|---------5-5-5-5-5-5---------4-4-4-4-4-4------------|

Gtr.1:
|----------------------------------------------------|
|----------------------------------------------------|
|----------------------------------------------------| 3x
|-4-5-4-0-5-5-5-5-5-5-4-5-4-0-4-4-4-4-4-4------------|
|---------5-5-5-5-5-5---------4-4-4-4-4-4------------|
|---------5-5-5-5-5-5---------4-4-4-4-4-4------------|

Gtr.2:
|--------------------0-0-0--------|
|---------2-2-2-------------2-2-2-|
|-2-4-2-0------2-2-2--------------| 3x
|---------------------------------|
|---------------------------------|
|---------------------------------|

Gtr.1:
|---------------------|
|---------------------|
|---------------------| 3x
|-4-5-4-0-5-5-5-5-5-5-|
|---------5-5-5-5-5-5-|
|---------5-5-5-5-5-5-|

Gtr.2:
|---------|
|---------|
|-2-4-2-0-|
|---------|
|---------|
|---------|

Gtr.1:
|---------|
|---------|
|---------|
|-4-5-4-0-|
|---------|
|---------|


...END...
Suggest correction
Give kudos to tab author, rate the tab!
1 2 3 4 5
comments
print report bad tab
guest
You may want to rate the tab now too:
select rating
Please do not post tabs as comments. Select "correction" instead!