Oops, an error
Loading. Please wait.

Boston Drama Tab

version 1
version 1

Interactive

15,343 views 18 this week
22 commentsread comments
1 2 3 4 5
worth learning
x 13
add to favorites
launch autoscroll
font size
0
reset
how to read this tab
guitar tuner
Tab Pro tools
  • play this tab
  • loop segment
  • change instrument
  • show fretboard
  • metronome
×
Best way to learn
"Boston Drama"
Autoscroll
slow
fast
+/-
esc
set tempo
stop
Contributor
Typecast

Title: Boston drama
Album: Every moss and cobweb


*pakinggan nyo ng mabuti yung kanta at intindihin nyo yung tab.
inupdate ko na to. yung intro slide up & down lang yan.

*yung chorus na my (no.x) kung ilan beses nyo uulitin yun.


intro:

e|----------------------------------|
b|----------------------------------|
g|----------------------------------|
d|-7/9\7\5--555555--7/9\7\5-444444--|
a|----------555555----------444444--|
d|----------555555----------444444--|


gtr. 1:

e|---------------------------------------|
b|---------------------------------------|
g|------------------------7777777777777--|
d|-777777777777777777777--7777777777777--|
a|-555555555555555555555--5555555555555--|
d|-555555555555555555555--0000000000000--|

   .....................


gtr. 2:

e|-----------------------|
b|-----5-----------------|
g|--7------------7/9--6--|
d|--5-----77777--x/x--x--|
a|--5-----55555--5/7--4--|
d|--------00000----------|


Standard pick-up lines that seems to wreck your bones


gtr. 1:

e|---------------------------------------|
b|---------------------------------------|
g|------------------------7777777777777--|
d|-777777777777777777777--7777777777777--|
a|-555555555555555555555--5555555555555--|
d|-555555555555555555555--0000000000000--|

   .....................

gtr. 2:

e|----------------------------|
b|-----5----------------------|
g|--7------------7/9--66/7\6--|
d|--5-----77777--x/x--xx/x\x--|
a|--5-----55555--5/7--44/5\4--|
d|--------00000---------------|


Can this be a sequel of my dying hope?


gtr. 1:

e|---------------------------------------|
b|---------------------------------------|
g|------------------------7777777777777--|
d|-777777777777777777777--7777777777777--|
a|-555555555555555555555--5555555555555--|
d|-555555555555555555555--0000000000000--|

   .....................


gtr. 2:

e|---------------------------------------------------------|
b|---------------------------------------------------------|
g|------66h7-----------------66h7-------7777777777--7/9-6--|
d|--77--7-----77--77h9p--77--7-----777--7777777777--x/x-x--|
a|--55--------55---------55--------555--5555555555--5/7-4--|
d|--55--------55---------55--------555--0000000000---------|
    ..        ..         ..


Chasing down a never ending make-believe


gtr. 1:

e|---------------------------------------|
b|---------------------------------------|
g|------------------------7777777777777--|
d|-777777777777777777777--7777777777777--|
a|-555555555555555555555--5555555555555--|
d|-555555555555555555555--0000000000000--|

   .....................


e|----------------------------------------------------|
b|----------------------------------------------------|
g|------66h7-----------------66h7-------7777777777----|
d|--77--7-----77--77h9p--77--7-----777--7777777777----|
a|--55--------55---------55--------555--5555555555----|
d|--55--------55---------55--------555--0000000000----|
    ..        ..         ..


But you’re a perfect match of consistency


chorus:


gtr. 1:

e|------------------------------------------------------|
b|------------------------------------------------------|
g|------------------------------------------------------|
d|-14(12x)--12(4x)--11(12x)--7(4x)--9(4x)---------------|
a|-----------------------------------------7(4x)--9(4x)-|
d|------------------------------------------------------|

e|-----------------------------|
a|-----------------------------|
d|-----------------------------|
g|-----------------------------|
b|--5(4x)--4(8x)--5(4x)--0(4x)-|
e|-----------------------------|


gtr. 2

e|--------------------------------------------|
b|--------------------------------------------|
g|--------------------------------------------|
d|--7777777--77777777--77777777--11-11-11-11--|
a|--5555555--44444444--55555555--9--9--9--9---|
d|--0000000--44444444--55555555--9--9--9--9---|


Will you come back in a heartbeat? Don’t be confused of what a great thing we could be
We’ll take a walk on the same street
Can you tell me how Boston is like without me?


after chorus:

e|---------------------|
b|---------------------|
g|---------------------|
d|------------5p4------|
a|--5p4--7h9------4h5--|
d|---------------------|


gtr. 1:

e|---------------------------------------|
b|---------------------------------------|
g|------------------------7777777777777--|
d|-777777777777777777777--7777777777777--|
a|-555555555555555555555--5555555555555--|
d|-555555555555555555555--0000000000000--|

   .....................


gtr. 2:

e|-----------------------|
b|-----5-----------------|
g|--7------------7/9--6--|
d|--5-----77777--x/x--x--|
a|--5-----55555--5/7--4--|
d|--------00000----------|


You’re image is stamp beneath the insides of my heart


gtr. 1:

e|---------------------------------------|
b|---------------------------------------|
g|------------------------7777777777777--|
d|-777777777777777777777--7777777777777--|
a|-555555555555555555555--5555555555555--|
d|-555555555555555555555--0000000000000--|

   .....................


gtr. 2:

e|----------------------------|
b|-----5----------------------|
g|--7------------7/9--66/7\6--|
d|--5-----77777--x/x--xx/x\x--|
a|--5-----55555--5/7--44/5\4--|
d|--------00000---------------|


Now you’re gone I don’t know where to start


gtr. 1:

e|---------------------------------------|
b|---------------------------------------|
g|---------------------------------------|
d|-777777777777777777777--7777777777777--|
a|-555555555555555555555--5555555555555--|
d|-555555555555555555555--0000000000000--|

   .....................


gtr. 2:

e|--------------------------------------------------------|
b|--------------------------------------------------------|
g|------66h7------66h7------66h7-------------------7/9-6--|
d|--77--7-----77--7-----77--7-----777--7777777777--x/x-x--|
a|--55--------55--------55--------555--5555555555--5/7-4--|
d|--55--------55--------55--------555--0000000000---------|
    ..        ..        ..


The evidence is showing like a stable apprehension


gtr. 1:

e|---------------------------------------|
b|---------------------------------------|
g|---------------------------------------|
d|-777777777777777777777--7777777777777--|
a|-555555555555555555555--5555555555555--|
d|-555555555555555555555--0000000000000--|

   .....................


gtr. 2:

e|------------------------------------------------------|
b|------------------------------------------------------|
g|------66h7-----------------66h7-------7777777777--9---|
d|--77--7-----77--77h9p--77--7-----777--7777777777--x---|
a|--55--------55---------55--------555--5555555555--7---|
d|--55--------55---------55--------555--0000000000------|
    ..        ..         ..


But you’re the only one who’s apt for this affection


gtr. 1:

e|------------------------------------------------------|
b|------------------------------------------------------|
g|------------------------------------------------------|
d|-14(12x)--12(4x)--11(12x)--7(4x)--9(4x)---------------|
a|-----------------------------------------7(4x)--9(4x)-|
d|------------------------------------------------------|

e|-----------------------------|
a|-----------------------------|
d|-----------------------------|
g|-----------------------------|
b|--5(4x)--4(8x)--5(4x)--0(4x)-|
e|-----------------------------|


gtr. 2

e|--------------------------------------------|
b|--------------------------------------------|
g|--------------------------------------------|
d|--7777777--77777777--77777777--11-11-11-11--|
a|--5555555--44444444--55555555--9--9--9--9---|
d|--0000000--44444444--55555555--9--9--9--9---|


Will you come back in a heartbeat?
Don’t be confused of what a great thing we could be
We’ll take a walk on the same street
Can you tell me how Boston is like without me?


after chorus:

e|-----------------------------------------------------------------|
b|-----------------------------------------------------------------|
g|-----------------------------------------------------------------|
d|--2--5p4-----0--5p4-----4--5p4-----444--2--5p4-----4-5-4--2-4-7--|
a|--2------h5--0------h5--4------h5--222--2------h5--4-5-2--2-4-5--|
d|--2----------0----------4---------------2----------4-5----2-4-5--|


clean:

e|----------------------------------------------------------|
b|-5--5--5-------2--2--2------------------------------------|
g|-7---7--7---7--2---2--2---2---4---------------------6h7---|  2x
d|-7----7--7--7--2----2--2--0---0--2--4-----11--11----------|
a|-5----------5--------------------0--0--5--9------9--------|
d|---------------------------------------0--9---------------|


e|------------------------------------------|
b|-5-----2----------------------------------|
g|-7--7--2--2---4----------------------6h7--|
d|-7--7--2--0---0--2---4-----11--11---------|
a|-5--5------------0---0--5--9------9-------|
d|------------------------0--9--------------|


distortion:


gtr. 1:

e|-----------------------------|
b|-----------------------------|
g|--14-14----------------------|  8x
d|--------12-12--11-11--12-12--|
a|-----------------------------|
d|-----------------------------|


gtr. 2:

e|--------------------------------------------|
b|--------------------------------------------|
g|--------------------------------------------|
d|--7777777--77777777--77777777--11-11-11-11--|
a|--5555555--44444444--55555555--9--9--9--9---|
d|--0000000--44444444--55555555--9--9--9--9---|


gtr. 1:

e|------------------------------|
b|------------------------------|  2x
g|--9/11--9/11--14-9/11--6-7-9--|
d|--x/x---x/x---x--x/x---x-x-x--|
a|--7/9---7/9---12-7/9---4-5-7--|
d|------------------------------|


gtr. 2:

e|--------------------------------------------|
b|--------------------------------------------|
g|--------------------------------------------| 2x
d|--7777777--77777777--77777777--11-11-11-11--|
a|--5555555--44444444--55555555--9--9--9--9---|
d|--0000000--44444444--55555555--9--9--9--9---|


outro:


gtr. 1:

e|---------------------------|
b|---------------------------|
g|--6-6-6-------9-9-9-6-6-6--|
d|--------7-7-7--------------|
a|---------------------------|
d|---------------------------|


gtr. 2:

e|----------------------------------|
b|----------------------------------|
g|----------------------------------|
d|-7/9\7\5--555555--7/9\7\5-444444--|
a|----------555555----------444444--|
d|----------555555----------444444--|


legend:

h  - hammer-on
p  - pull-off
b  - bend
r  - bend release
/\ - slide into or out of (from/to "nowhere")
s  - legato slide
S  - shift slide
~  - vibrato
.  - palm mute
comments
print report bad tab
22 comments total. Showing first comments.
0 reply
jepjep wrote on November 15 2006, 08:01 am

ito ang asteg na tab!!! tamang tama toh..khit ask nio sa magagaling...

0 reply
fin_gurl2006 wrote on November 17 2006, 05:32 am

hah!!!ang korny2 ng tab m..puro low class!!sriling account m ito me and myself!!kta ktang gumagawa ng jepjep accnt!!!POSER K JEP2

0 reply
No_Falter08 wrote on November 18 2006, 01:46 am

kung muka kang drop d tuning,dto s album nla,DROP C!!

I want to post or [tab]
guest
You may want to rate the tab now too:
select rating
Please do not post tabs as comments. Select "correction" instead!