Oops, an error
Loading. Please wait.

Boston Drama Bass Tab

version 2
version 2

Whole song

Interactive

1,725 views 3 this week
no commentswrite comment
1 2 3 4 5
3 more votes to show rating
add to favorites
launch autoscroll
font size
0
reset
guitar tuner
Autoscroll
slow
fast
+/-
esc
set tempo
stop
Help us to improve Ultimate-Guitar.com Take our survey!
×
Author
Difficulty
Tuning
intermediate
D A D G B E
Tuning: Drop D

Intro:
G|---------------------------------|
D|---------------------------------|
A|---------------------------------| (x8)
D|-5-5-5-5-5-5-5-5-4-4-4-4-4-4-4-4-|


Verses:
G|------------------------------------------------|
D|------------------------------------------------|
A|--------------------4/5--5/7--7/9--9/12---------| (x2)
D|-5-5-5-5-5-5-5-5--0---------------------0-0-0-0-|


Refrain:
G|-----------------------------------------------------------------|
D|-----------------------------------------------------------------|
A|-2-2-2-2-2-2-2-2-----------------2-2-2-2-2-2-2-2-----------------|
D|-----------------0-0-0-0-0-0-0-0-----------------5-5-5-5-5-5-5-5-|
   . . . . . . . .                 . . . . . . . .

Chorus:
G|-----------------------------------------------------------------|
D|-----------------------------------------------------------------|
A|-------------------------------------------------2-2-2-2-4-4-4-4-|
D|-0-0-0-0-0-0-0-0-4-4-4-4-4-4-4-4-5-5-5-5-5-5-5-5-----------------|
then
G|-----------------------------------------------------------------|
D|-----------------------------------------------------------------|
A|-------------------------------------------------2-2-2-2---4~----|
D|-0-0-0-0-0-0-0-0-4-4-4-4-4-4-4-4-5-5-5-5-5-5-5-5-----------------|

Post Chorus:
G|---6/7---7\6---9/12---7\6-|
D|-0-----0-----0------0-----|
A|--------------------------|
D|--------------------------|


Bridge:
G|---------------------------|
D|---------------------------|
A|-7---5---4---3-------------|
D|-----------------2---4---5-|
then
G|-9-9----9----10/11----6-----4-----------------4--|
D|-0----0----0--------4----7-----2--4--0--2---4---4|
A|------------------------------------------2------|
D|-------------------------------------------------|
then
G|-9-9----9----9\11----6------4---------------------|
D|-0----0----0------4-----7------2--4--0--2---------|
A|------------------------------------------/2~-----|
D|--------------------------------------------------|
tapus
G|-99999999-11|----66-----44-----------------------44---|
D|-00000000---|-44----77------22--44--00--22----44----44|
A|------------|------------------------------22---------|(repaet many times)
D|------------|-----------------------------------------|

(Repeat Intro)
Suggest correction
Give kudos to tab author, rate the tab!
1 2 3 4 5
comments
print report bad tab
guest
You may want to rate the tab now too:
select rating
Wanna post a correction for this tab? Suggest correction