Oops, an error
Loading. Please wait.

Boston Drama Tab

version 2
version 2

Interactive

37,943 views 42 this week
21 commentsread comments
1 2 3 4 5
x 17
add to favorites
×
Save as Personal and add changes to this tab that will be seen only by you. Learn more ›
×
You can save this tab as Personal to edit and correct it or add notes. All changes will be seen only by you. Learn more »
save as personal
new!
launch autoscroll
font size
0
reset
how to read this tab
guitar tuner
Autoscroll
slow
fast
+/-
esc
set tempo
stop
Author
Typecast
Title: The Boston Drama
Album: Every Moss And Cobweb
Tabbed by: Carlos Labao
This is a great song, sana magustuhan niyo...
Dropped d

[intro]
[gtr. 1]
e|------------------------------------------------|
b|------------------------------------------------|
g|-------------7-7-7-7-7-7-----------6-6-6-6-6-6--|
d|----4h5p4p0--5-5-5-5-5-5--4h5p4p0--4-4-4-4-4-4--|
a|-------------5-5-5-5-5-5-----------4-4-4-4-4-4--|\
d|-------------5-5-5-5-5-5-----------4-4-4-4-4-4--| \
                                                     x2
e|------------------------------------------------| /
b|------------------------------------------------|/
g|-----------7-7-7-7-7-7-----------6-6-6-6-6-6----|
d|----4h5s7--5-5-5-5-5-5--4h5p4p0--4-4-4-4-4-4----|
a|-----------5-5-5-5-5-5-----------4-4-4-4-4-4----|
d|-----------5-5-5-5-5-5-----------4-4-4-4-4-4----|

[gtr. 2]
e|--------------------------------------------|
b|--------------------------------------------|
g|-----------7-7-7-7-7-7---------6-6-6-6-6-6--|
d|----7h9p7--5-5-5-5-5-5--7h9p7--4-4-4-4-4-4--|
a|-----------5-5-5-5-5-5---------4-4-4-4-4-4--|\
d|-----------5-5-5-5-5-5---------4-4-4-4-4-4--| \
                                                 x2
e|--------------------------------------------| /
b|--------------------------------------------|/
g|-----------7-7-7-7-7-7---------6-6-6-6-6-6--|
d|----7h9p7--5-5-5-5-5-5--7h9p7--4-4-4-4-4-4--|
a|-----------5-5-5-5-5-5---------4-4-4-4-4-4--|
d|-----------5-5-5-5-5-5---------4-4-4-4-4-4--|

(Standard pick-up lines that seems to wreck your bones)

[gtr. 1]
e|---------------------------------------|
b|---------------------------------------|
g|------------------------7777777777777--|
d|-555555555555555555555--7777777777777--|
a|-555555555555555555555--5555555555555--|
d|-555555555555555555555-----------------|
   ...........

[gtr. 2]
e|------------------------|
b|------------------------|
g|-------77777--7/9--6----|
d|-------77777--x/x--x----|
a|-------55555--5/7--4----|
d|------------------------|
Can this be a sequel of my dying hope?

[gtr. 1]
e|---------------------------------------|
b|---------------------------------------|
g|------------------------7777777777777--|
d|-555555555555555555555--7777777777777--|
a|-555555555555555555555--5555555555555--|
d|-555555555555555555555-----------------|
   ..........

[gtr. 2]
e|---------------------------|
b|---------------------------|
g|-------77777--7/9--66/7\6--|
d|-------77777--x/x--xx/x\x--|
a|-------55555--5/7--44/5\4--|
d|---------------------------|

Chasing down a never ending make-believe

[gtr. 1]
e|---------------------------------------|
b|---------------------------------------|
g|------------------------7777777777777--|
d|-555555555555555555555--7777777777777--|
a|-555555555555555555555--5555555555555--|
d|-555555555555555555555-----------------|
   .....................

[gtr. 2]
e|--------------------------------------------------------|
b|--------------------------------------------------------|
g|--------------------------------------------------------|
d|--99-11-11s12s11--44-44h5p4-99-11-11s12s11--44-44h5p4---|
a|--99--------------44--------99--------------44----------|
d|--99--------------44--------99--------------44----------|
    ..              ..        ..              ..

e|---------------------------|
b|---------------------------|
g|-------77777--7/9--66/7\6--|
d|-------77777--x/x--xx/x\x--|
a|-------55555--5/7--44/5\4--|
d|---------------------------|

(But you’re a perfect match of consistency)

[gtr. 1]
e|---------------------------------------|
b|---------------------------------------|
g|------------------------7777777777777--|
d|-555555555555555555555--7777777777777--|
a|-555555555555555555555--5555555555555--|
d|-555555555555555555555-----------------|
   .....................

[gtr. 2]
e|--------------------------------------------------------|
b|--------------------------------------------------------|
g|--------------------------------------------------------|
d|--99-11-11s12s11--44-44h5p4-99-11-11s12s11--44-44h5p4---|
a|--99--------------44--------99--------------44----------|
d|--99--------------44--------99--------------44----------|
    ..              ..        ..              ..

e|----------------------------|
b|----------------------------|
g|--------------7/9--666------|
d|-------55555--x/x--xxx------|
a|-------55555--5/7--444--777-|
d|-------55555----------------|

Will you come back in a heartbeat?
Don’t be confused of what a great thing we could be
We’ll take a walk on the same street
Now can you tell me how Boston is like without me?

[gtr. 1: x2]
e|------------------------------------------------------------------------|
b|----------------10--10-10-----------------------------------------------|
g|-999999-7777-666--66--6-------------------------------------------------|
d|--------------------------7777--9999------------------------------------|
a|-------------------------------------7777-9999-4444-5555-0000-2222------|
d|-------------------------------------------------------------------2222-|

[gtr. 2 x2]
e|-----------------------------------------------------------|
b|-----------------------------------------------------------|
g|--9999--7777--6666--------------------------------6666h76--|
d|--7777--7777--7777--7777--9999--------------------7777--7--|
a|--5555--5555--5555--5555--7777--7777--9999--7777--5555--5--|
d|-----------------------------------------------------------|

[after chorus]
[gtr. 1]
e|---------------------|
b|---------------------|
g|---------------------|
d|--2-----2h4-5s4------|
a|--2-4s5---------4s5--|
d|--2------------------|
    .

[gtr. 2]
e|---------------------|
b|---------------------|
g|---------------------|
d|--2---------9s7-5s7--|
a|--2------------------|
d|--2------------------|
    .

You’re image is stamped beneath the insides of my heart

[gtr. 1]
e|---------------------------------------|
b|---------------------------------------|
g|------------------------7777777777777--|
d|-555555555555555555555--7777777777777--|
a|-555555555555555555555--5555555555555--|
d|-555555555555555555555-----------------|
   ...........

[gtr. 2]
e|------------------------|
b|------------------------|
g|-------77777--7/9--6----|
d|-------77777--x/x--x----|
a|-------55555--5/7--4----|
d|------------------------|

Now you’re gone I don’t know where to start

[gtr. 1]
e|---------------------------------------|
b|---------------------------------------|
g|------------------------7777777777777--|
d|-555555555555555555555--7777777777777--|
a|-555555555555555555555--5555555555555--|
d|-555555555555555555555-----------------|
   ...........

[gtr. 2]
e|----------------------|
b|----------------------|
g|-------77777--7/9--6--|
d|-------77777--x/x--x--|
a|-------55555--5/7--4--|
d|----------------------|

The evidence is showing like a stable apprehension

[gtr. 1]
e|---------------------------------------|
b|---------------------------------------|
g|------------------------7777777777777--|
d|-555555555555555555555--7777777777777--|
a|-555555555555555555555--5555555555555--|
d|-555555555555555555555-----------------|
   .....................

[gtr. 2]
e|--------------------------------------------------------|
b|--------------------------------------------------------|
g|--------------------------------------------------------|
d|--99-11-11s12s11--44-44h5p4-99-11-11s12s11--44-44h5p4---|
a|--99--------------44--------99--------------44----------|
d|--99--------------44--------99--------------44----------|
    ..              ..        ..              ..

e|---------------------------|
b|---------------------------|
g|-------77777--7/9--66/7\6--|
d|-------77777--x/x--xx/x\x--|
a|-------55555--5/7--44/5\4--|
d|---------------------------|

But you’re the only one who’s apt for this affection

[gtr. 1]
e|---------------------------------------|
b|---------------------------------------|
g|------------------------7777777777777--|
d|-555555555555555555555--7777777777777--|
a|-555555555555555555555--5555555555555--|
d|-555555555555555555555-----------------|
   .....................

[gtr. 2]
e|--------------------------------------------------------|
b|--------------------------------------------------------|
g|--------------------------------------------------------|
d|--99-11-11s12s11--44-44h5p4-99-11-11s12s11--44-44h5p4---|
a|--99--------------44--------99--------------44----------|
d|--99--------------44--------99--------------44----------|
    ..              ..        ..              ..

e|----------------------------|
b|----------------------------|
g|--------------7/9--666------|
d|-------55555--x/x--xxx------|
a|-------55555--5/7--444--777-|
d|-------55555----------------|

Will you come back in a heartbeat?
Don’t be confused of what a great thing we could be
We’ll take a walk on the same street
Can you tell me how Boston is like without me?

[gtr. 1: x2]
e|------------------------------------------------------------------------|
b|----------------10--10-10-----------------------------------------------|
g|-999999-7777-666--66--6-------------------------------------------------|
d|--------------------------7777--9999------------------------------------|
a|-------------------------------------7777-9999-4444-5555-0000-2222------|
d|-------------------------------------------------------------------2222-|

[gtr. 2 x2]
e|-----------------------------------------------------------|
b|-----------------------------------------------------------|
g|--9999--7777--6666--------------------------------6666h76--|
d|--7777--7777--7777--7777--9999--------------------7777--7--|
a|--5555--5555--5555--5555--7777--7777--9999--7777--5555--5--|
d|-----------------------------------------------------------|

[after chorus]
e|--------------------------------------------------------|
b|--------------------------------------------------------|
g|-----------------------------4--------------4-----------|
d|--2-5s4p0--4-5s4p0--5-5s4p0--4-5s4p0--2-4-5-4--2-4-5~---|
a|--2--------4--------5--------2--------2-4-5-2--2-4-5~---|
d|--2--------4--------5-----------------2-4-5----2-4-5~---|

[clean]
[gtr. 1]
e|---------------------------------------------------|
b|---------------------------------------------------|
g|-9----9----7---6---6-----------------6----6h7-6----|  2x
d|-7-7---7----7---7---7---7-9----------7---------7---|
a|-5--55--5--------55--5------7-7h9-7--5-555---------|
d|---------------------------------------------------|

[gtr. 2]
e|---------------------------------------------|
b|-10-7----2-5---------------------------------|
g|-9--7-6--2-4---------------------------------| 4x
d|-7--5-4--0-2-2-4-----------------------------|
a|-----------------4-5-0-2-0-------------------|
d|---------------------------------------------|

e|-------------------|
b|-------------------|
g|77777--1111111111--|
d|xxxxx--x-x-x-x-x---|
a|55555--9-9-9-9-9---|
d|-------------------|

[distortion]

[gtr. 1]
e|-----------------------------|
b|----14-15--------------------|
g|-----------------------------|  8x
d|----------11-12--------------|
a|-----------------------------|
d|-----------------------------|

[gtr. 2]
e|-----------------------------------------------------------|
b|-----------------------------------------------------------|
g|--9999--7777--6666--------------------------------6666h76--|
d|--7777--7777--7777--7777--9999--------------------7777--7--|
a|--5555--5555--5555--5555--7777--7777--9999--7777--5555--5--|
d|-----------------------------------------------------------|

[gtr. 1]
e|------------------------------|
b|------------------------------|  2x
g|--9/11--9/11--14-9/11--6-7-9--|
d|--x/x---x/x---x--x/x---x-x-x--|
a|--7/9---7/9---12-7/9---4-5-7--|
d|------------------------------|

[gtr. 2]
e|-----------------------------------------------------------|
b|-----------------------------------------------------------|
g|--9999--7777--6666--------------------------------6666h76--|
d|--7777--7777--7777--7777--9999--------------------7777--7--|
a|--5555--5555--5555--5555--7777--7777--9999--7777--5555--5--|
d|-----------------------------------------------------------|

[outro]
[gtr. 1]
e|------------------------------------------------|
b|------------------------------------------------|
g|-------------7-7-7-7-7-7-----------6-6-6-6-6-6--|
d|----4h5p4p0--5-5-5-5-5-5--4h5p4p0--4-4-4-4-4-4--|
a|-------------5-5-5-5-5-5-----------4-4-4-4-4-4--|
d|-------------5-5-5-5-5-5-----------4-4-4-4-4-4--|

e|------------------------------------------------|
b|------------------------------------------------|
g|-----------7-7-7-7-7-7-----------6-6-6-6-6-6----|
d|----4h5s7--5-5-5-5-5-5--4h5p4p0--4-4-4-4-4-4----|
a|-----------5-5-5-5-5-5-----------4-4-4-4-4-4----|
d|-----------5-5-5-5-5-5-----------4-4-4-4-4-4----|

[gtr. 2]
e|--------------------------------------------|
b|--------------------------------------------|
g|-----------7-7-7-7-7-7---------6-6-6-6-6-6--|
d|----7h9p7--5-5-5-5-5-5--7h9p7--4-4-4-4-4-4--|
a|-----------5-5-5-5-5-5---------4-4-4-4-4-4--|
d|-----------5-5-5-5-5-5---------4-4-4-4-4-4--|

e|--------------------------------------------|
b|--------------------------------------------|
g|-----------7-7-7-7-7-7---------6-6-6-6-6-6--|
d|----7h9p7--5-5-5-5-5-5--7h9p7--4-4-4-4-4-4--|
a|-----------5-5-5-5-5-5---------4-4-4-4-4-4--|
d|-----------5-5-5-5-5-5---------4-4-4-4-4-4--|

[guitar 1]
e|------------------------------------------------|
b|------------------------------------------------|
g|-------------7-7-7-7-7-7-----------6-6-6-6-6-6--|
d|----4h5p4p0--5-5-5-5-5-5--4h5p4p0--4-4-4-4-4-4--|
a|-------------5-5-5-5-5-5-----------4-4-4-4-4-4--|
d|-------------5-5-5-5-5-5-----------4-4-4-4-4-4--|

e|------------------------------------------------|
b|------------------------------------------------|
g|-----------7-7-7-7-7-7-----------6-6-6-6-6-6----|
d|----4h5s7--5-5-5-5-5-5--4h5p4p0--4-4-4-4-4-4----|
a|-----------5-5-5-5-5-5-----------4-4-4-4-4-4----|
d|-----------5-5-5-5-5-5-----------4-4-4-4-4-4----|

[gtr. 2]
e|-----------------------------------| x4
b|-----------------------------------|
g|--6-6-6-------9-9-9-6-6-6----------|
d|--------7-7-7-------------7h9p7p0--|
a|-----------------------------------|
d|-----------------------------------|

************************************

| h  Hammer-on
| p  Pull-off
| x  Dead note
| /  Slide up
| \  Slide down
| .  Staccato
| ~  Vibrato

************************************
Suggest correction
comments
print report bad tab
21 comments total. Showing first comments.
0 reply
EmoJunE741 10 Dec 16, 2006 10:15 PM

pre.. auz na sana ung tab moo... kaso panira ung intro.. paki revise nlang pare

0 reply
sepultaricmanic 10 Dec 22, 2006 02:46 AM

he's ryt.....3 strs

0 reply
your_heroine 30 Jan 09, 2007 04:40 PM

tol anu masa2bi mu s mga nagta2b ng dropc???prng accurate un...
ok un tab mu...nkatulong skin,,,

guest
You may want to rate the tab now too:
select rating
Wanna post a correction for this tab? Suggest correction