Oops, an error
Loading. Please wait.

Boston Drama Tab

version 3
version 3

Interactive

3,077 views 1 this week
1 commentread comment
1 2 3 4 5
please rate
add to favorites
launch autoscroll
font size
0
reset
how to read this tab
guitar tuner
Autoscroll
slow
fast
+/-
esc
set tempo
stop
Help us to improve Ultimate-Guitar.com Take our survey!
×
Author
Difficulty
Tuning
intermediate
D A D G B E
Title: Boston Drama
Artist: Typecast
Tabbed by: Levy Aleman
Tuning: DADGBE

INTRO:
e-------------------------------------------|
B-------------------------------------------|
G-------------------------------------------|
D--7h9p7-7-5-5-5-5-5-5-7h9p7-7-4-4-4-4-4-4--| 4X
A----------5-5-5-5-5-5---------4-4-4-4-4-4--|
D----------5-5-5-5-5-5---------4-4-4-4-4-4--|

VERSE:     [    Palm Mute     ]
e-----------------------------------------------------------------------------|
B-----------------------------------------------------------------------------|
G------------------------------77777777777---7777777777777/9-666666666666666--|
D--7h9p7-7---------------------55555555555---xxxxxxxxxxxxx-x-xxxxxxxxxxxxxxx--|
A----------5555555555555555555555555555555---5555555555555/7-444444444444444--|
D----------5555555555555555555555555555555-0-0000000000000-0-000000000000000--|

   [     Palm Mute    ]
e---------------------------------------------------------------------|
B---------------------------------------------------------------------|
G----------------------77777777777---7777777777777/9-666666666666666--|
D----------------------55555555555---xxxxxxxxxxxxx-x-xxxxxxxxxxxxxxx--|
A--5555555555555555555555555555555---5555555555555/7-444444444444444--|
D--5555555555555555555555555555555-0-0000000000000-0-000000000000000--|


e-----------------------------------------------------------------------------------|
B-----------------------------------------------------------------------------------|
G------6-6h7p6-----------------6-6h7p6-------------7777777777777/9-666666666666666--|
D------------------4-4b5r4-------------99999999999-xxxxxxxxxxxxx-x-xxxxxxxxxxxxxxx--| 2x
A--9-9---------2-2---------9-9---------99999999999-5555555555555/7-444444444444444--|
D--9-9---------------------9-9---------99999999999-0000000000000-0-000000000000000--|

CHORUS:
e-----------------------------------------------------|
B-----------------------------------------------------|
G--9---------7--6-------------------------------------|
D--7---------7--7----------7--9-----------------------|
A--5---------5--4----------5--5--7/9--4-4/5--0--2--0--|
D--------------------------------0-0--0-0-0--0--0-----|


e----------------------------------------------------------------------------------|
B----------------------------------------------------------------------------------|
G--9---------7--6------------------------------------------------------4p2---------|
D--7---------7--7----------7--9------------------------------------2/4----------5--|
A--5---------5--4----------5--5--7/9--4-4/5--0--2--0--------2--4/5---------4/5--5--|
D--------------------------------0-0--0-0-0--0--0-----------2-------------------5--|

(REPEAT VERSE)

(REPEAT CHORUS)

BRIDGE:
e--------------------------------|
B--------------------------------|
G-----------------------------4--|
D--2--5p4-0-0--5p4-0-6--5p4-0-4--|
A--2--------0--------4--------2--|
D--2--------0--------------------|


e------------------------------------------------------------|
B------------------------------------------------------------|
G------------------------------------------------------------|
D--2--------4--------5--------9--------2--------4--------5~--|
A--2--------4--------5--------9--------2--------4--------5~--|
D--2--------4--------5--------9--------2--------4--------5~--|

Clean Guitar:
e--5----------------------------------------------------------------|
B--5------5---5------3-2------2---2---------------------------------|
G--2---22---2---2----2-2---22---2---2------2-2/4-0-0/2--------------|
D--0-----------------0-0-------------------4-4/5-2-2/4-2-2/4--------|
A------------------------------------------------------4-4/5-0-2-0--|
D-------------------------------------------------------------------|


e--5-------5-------5-------5-------5-------5------5-------5-------5----|
B----3-2-3---3-2-3---3-2-3---3-2-3---3-2-3--3-2-3---3-2-3---3-2-3---3--|
G----------------------------------------------------------------------|
D----------------------------------------------------------------------|
A----------------------------------------------------------------------|
D----------------------------------------------------------------------|


e-----------------------------------|
B--2-2-2-------5-5-5-2-2-2----------|
G--------2-2-2-------------2h4p2-0--|
D-----------------------------------|
A-----------------------------------|
D-----------------------------------|

OUTRO: (REPEAT INTRO)
Suggest correction
What's this?
You can suggest a correction to this tab. Community and Mods will review your correction and vote to approve or reject it.
comments
We did not receive enough feedback on this tab! Please rate:
print report bad tab
1 2 3 4 5
1 comment total.
0 reply
pogito 76 wrote on April 13 2007, 05:28 am

non-accurate

guest
You may want to rate the tab now too:
select rating
Please do not post tabs as comments. Select "correction" instead!