Oops, an error
Loading. Please wait.

Boston Drama Tab

version 4
version 4

Interactive

1,331 views 3 this week
no commentswrite comment
1 2 3 4 5
please rate
add to favorites
launch autoscroll
font size
0
reset
how to read this tab
guitar tuner
Autoscroll
slow
fast
+/-
esc
set tempo
stop
Help us to improve Ultimate-Guitar.com Take our survey!
×
Author
Difficulty
intermediate
Typecast

Title: The Boston drama
Album: Every moss and cobweb


h  - hammer-on
p  - pull-off
/  - slide into or out of (from/to "nowhere")
x  - dead string
.  - palm mute


intro:


gtr.1
e|---------------------------------|
b|---------------------------------|\
g|-2h4p2p0--777777-2h4p2p0-666666--| \
d|----------555555---------444444--|  \
a|----------555555---------444444--|   \
D|----------555555---------444444--|    \
                                         (2x)
gtr.2                                   /
e|---------------------------------|   /
b|---------------------------------|  /
g|---------777777---------666666---| /
d|-4h5p4p0-555555-4h5p4p0-444444---|/
a|---------555555---------444444---| 
D|---------555555---------444444---|




verse 1:

Standard pick-up lines that seems to wreck your bones
e|---------------------------------------|
b|---------------------------------------|
g|------------------------7777/9-666-----|
d|-777777777777777777777--xxxx/x-xxx-----|
a|-555555555555555555555--5555/7-444-----|
D|-555555555555555555555-----------------|

   .....................

   can this be a sequel of my dying hope..
e|-----------------------------------------|
b|-----------------------------------------|
g|------------------------7777/9-6-6/7-66--|
d|-777777777777777777777--xxxx/x-x-x/x-xx--|
a|-555555555555555555555--5555/7-4-4/5-44--|
D|-555555555555555555555-------------------|
   .....................

ref:


Chasing down a never ending make-believe

e|---------------------------------------------------------|
b|----2-2/3----------------2-2/3---------------------------|
g|-44-------44----------44-------444444444-7777/9-666------|
d|-44-------44-4-4p5h4--44-------444444444-xxxx/x-xxx------|
a|-22-------22----------22-------222222222-5555/7-444------|
D|---------------------------------------------------------|
   ..       ..          ..
but, your a perfect match of consistency..
e|---------------------------------------------------------|
b|----2-2/3----------------2-2/3---------------------------|
g|-44-------44----------44-------444444444-7777/9-6-6/7-6--|
d|-44-------44-4-4p5h4--44-------444444444-xxxx/x-x-x/x-x--|
a|-22-------22----------22-------222222222-5555/7-4-4/5-4--|
D|---------------------------------------------------------|
   ..       ..          ..



chorus:

Will you come back in a heartbeat?
Don’t be confused of what a great thing we could be
We’ll take a walk on the same street
Can you tell me how Boston is like without me?

gtr. 1:

e|------------------------------------------------------------------------|
b|----------------10--10-10-----------------------------------------------|
g|-999999-7777-666--66--6-------------------------------------------------|
d|--------------------------7777--9999------------------------------------|
a|-------------------------------------7777-9999-4444-5555-0000-2222-000--|
D|------------------------------------------------------------------------|


gtr. 2

e|--------------------------------------------|
b|--------------------------------------------|
g|--------------------------------------------|
d|--7777777--77777777--77777777--11-11-11-11--|
a|--5555555--44444444--55555555--9--9--9--9---|
D|--0000000--44444444--55555555--9--9--9--9---|


after chorus:

e|--------------------|
b|--------------------|
g|--------------------|
d|------2p4-5p4-------|
a|--4p5---------4h5---|
D|-0-------0----------|


verse 2:

You’re image is stamp beneath the insides of my heart
e|---------------------------------------|
b|---------------------------------------|
g|------------------------7777/9-666-----|
d|-777777777777777777777--xxxx/x-xxx-----|
a|-555555555555555555555--5555/7-444-----|
D|-555555555555555555555-----------------|
   .....................


Now you’re gone I don’t know where to start
e|-----------------------------------------|
b|-----------------------------------------|
g|------------------------7777/9-6-6/7-66--|
d|-777777777777777777777--xxxx/x-x-x/x-xx--|
a|-555555555555555555555--5555/7-4-4/5-44--|
D|-555555555555555555555-------------------|
   .....................



ref:


The evidence is showing like a stable apprehension
e|---------------------------------------------------------|
b|----2-2/3----------------2-2/3---------------------------|
g|-44-------44----------44-------444444444-7777/9-666------|
d|-44-------44-4-4p5h4--44-------444444444-xxxx/x-xxx------|
a|-22-------22----------22-------222222222-5555/7-444------|
D|---------------------------------------------------------|
   ..       ..          ..



But you’re the only one who’s apt for this affection


e|------------------------------------------------------------|
b|----2-2/3----------------2-2/3------------------------------|
g|-44-------44----------44-------444444444-7777/9-9/11-11/12--|
d|-44-------44-4-4p5h4--44-------444444444-xxxx/x-x/x--x/-x---|
a|-22-------22----------22-------222222222-5555/7-7/9--9/10---|
D|------------------------------------------------------------|
   ..       ..          ..



chorus:

Will you come back in a heartbeat?
Don’t be confused of what a great thing we could be
We’ll take a walk on the same street
Can you tell me how Boston is like without me?

gtr. 1:

e|------------------------------------------------------------------------|
b|----------------10--10-10-----------------------------------------------|
g|-999999-7777-666--66--6-------------------------------------------------|
d|--------------------------7777--9999------------------------------------|
a|-------------------------------------7777-9999-4444-5555-0000-2222-000--|
D|------------------------------------------------------------------------|


gtr. 2

e|--------------------------------------------|
b|--------------------------------------------|
g|--------------------------------------------|
d|--7777777--77777777--77777777--11-11-11-11--|
a|--5555555--44444444--55555555--9--9--9--9---|
D|--0000000--44444444--55555555--9--9--9--9---|



bridge:

e|--------------------------------------------------------|
b|--------------------------------------------------------|
g|-----------------------------4--------------11----------|
d|--2-5s4p0--4-5s4p0--5-5s4p0--4-5s4p0--2-4-5-x--2-4-5~---|
a|--2--------4--------5--------2--------2-4-5-9--2-4-5~---|
D|--2--------4--------5-----------------2-4-5----2-4-5~---|


clean part:

e|---------------------------------------|
b|---------------------------------------|
g|-9--9--9----7-6---6--6-6-------6h7-6---|
d|-7---7--7-7-7-7-7--7-7-9------------7--| 2x  (di ko lam ung za guitar 2 eh..(x_\)\m/)
a|-9-9--9--9---------------7-9-45--------|
d|---------------------------------------|


2nd part:



e|--------------------------------------------------------------------|
b|--------------------------------------------------------------------|
g|-9-999999-7777-66666666-6666-6666-----------------------------------|
d|-7----------------------7777-9999-----------------------------------|2x
a|-9-------------------------------7777-9999-4444-5555-0000-2222-000--|
D|--------------------------------------------------------------------|

distortion:

gtr.1

e|--------------------------------------------|
b|--------------------------------------------|
g|--------------------------------------------|
d|--7777777--77777777--77777777--11-11-11-11--|
a|--5555555--44444444--55555555--9--9--9--9---|
D|--0000000--44444444--55555555--9--9--9--9---|


gtr.2

e|-----------------------------|
b|-----------------------------|
g|---1414----------------------|  
d|-------12-12-13-13-12-12-----|
a|-----------------------------|
d|-----------------------------|


gtr.1


e|------------------------------|
b|------------------------------| 
g|--9/11--9/11--14-9/11--6-7-9--|2x
d|--x/x---x/x---x--x/x---x-x-x--|
a|--7/9---7/9---12-7/9---4-5-7--|
D|------------------------------|


outro:

gtr.1
e|---------------------------------|
b|---------------------------------|
g|-2h4p2p0--777777-2h4p2p0-666666--|
d|----------555555---------444444--|
a|----------555555---------444444--| 
D|----------555555---------444444--|
                                         (2x)
gtr.2
e|---------------------------------|
b|---------------------------------|
g|---------777777---------666666---|
d|-4h5p4p0-555555-4h5p4p0-444444---|
a|---------555555---------444444---| 
D|---------555555---------444444---|


gtr.1
e|---------------------------------|
b|---------------------------------|
g|-2h4p2p0--777777-2h4p2p0-666666--|
d|----------555555---------444444--|
a|----------555555---------444444--| 
D|----------555555---------444444--|
               
gtr. 2:
e|----------------------------|
b|----------------------------|
g|--6-6-6-------9-9-9-6-6-6---|4x
d|--------7-7-7---------------|
a|----------------------------|
D|----------------------------|



gtr.1
e|----------|
b|----------|
g|--2h4p2p0-|
d|----------|
a|----------|
D|----------|

gtr.2
e|----------|
b|----------|
g|----------|
d|-4h5p4p0--|
a|----------|
D|----------|



e|---|b
b|---|r
g|-7-|e  (lagyan nyu para maiba!!!hehe..)
d|-5-|a
a|-5-|k
D|-5-|!


                         -end-

whew!aztig tlga typecast..lalu na nung underground pa zila..
tabbed by lorenzo sayson..of STI southwoods..di maxadong zure yan..90% lang..
zeekret_bataz@yahoo.com


             \m/(//e)\m/













Suggest correction new What's this?
You can suggest a correction to this tab. Community and Mods will review your correction and vote to approve or reject it.
comments
We did not receive enough feedback on this tab! Please rate:
print report bad tab
1 2 3 4 5
guest
You may want to rate the tab now too:
select rating
Please do not post tabs as comments. Select "correction" instead!