Oops, an error
Loading. Please wait.

Boston Drama Tab

version 6
version 6

Interactive

12,393 views 18 this week
5 commentsread comments
1 2 3 4 5
excellent!
x 4
add to favorites
launch autoscroll
font size
0
reset
how to read this tab
guitar tuner
Autoscroll
slow
fast
+/-
esc
set tempo
stop
Help us to improve Ultimate-Guitar.com Take our survey!
×
Author
Difficulty
intermediate
TITLE:       the boston drama
ARTIST:      typecast
ALBUM:       every moss and cobweb
TABBED BY:   silentrocker21
E-MAIL:      lorenz10_15@yahoo.com

niZe song, great tune by typecast... one of my favorite bands...
juzt listen to the song for the correct strumming pattern. i also included some simple 
after the tab for those beginners who wanted to play it in acoustic... hehe...;p hope you 
like this...
add me in friendster/myspace: lorenz10_15@yahoo.com
thankz...\m/\m/
(juzt msg me if u want me to tab a new song that you like...\m/\m/)

GUITAR TUNING : guitar1: DROP D
                guitar2: STANDARD


InTrO:
guitar1:
e|---------------------------------------------|
B|---------------------------------------------|
G|---2-4-2-0-------------2-4-2-0---------------|
D|-----------5-5-5-5-5-5---------4-4-4-4-4-4---|
A|-----------5-5-5-5-5-5---------4-4-4-4-4-4---|
D|-----------5-5-5-5-5-5---------4-4-4-4-4-4---|
guitar2:
e|---------------------------------------------|
B|---------------------------------------------|
G|---------------------------------------------|
D|---4-5-4-0-5-5-5-5-5-5-4-5-4-0-4-4-4-4-4-4---|
A|-----------5-5-5-5-5-5---------4-4-4-4-4-4---|
E|-----------3-3-3-3-3-3---------2-2-2-2-2-2---|

vErSe1:
guitar1:
e|-----------------------------------------------------|
B|-----------------------------------------------------|
G|-----------------------------------------------------|
D|--5-5-5-5-5-5-5-5-5-5-5-5-5-5-5-5-0---0---0---0---0--|
A|--5-5-5-5-5-5-5-5-5-5-5-5-5-5-5-5-0---0---0---0---0--|
D|--5-5-5-5-5-5-5-5-5-5-5-5-5-5-5-5-0---0---0---0---0--|
     ^                     ^
     :---------PM----------:
guitar2:
e|----------0-------0----------------------------------|
B|--3---------3-------3--------------------------------|
G|--2-----------2-------2---------------7---7/9---6----|
D|--0-------------0-------0----------------------------|
A|--------------------------------------5---5/7---4----|
E|-----------------------------------------------------|

guitar1:
e|-----------------------------------------------------|
B|-----------------------------------------------------|
G|-----------------------------------------------------|
D|--5-5-5-5-5-5-5-5-5-5-5-5-5-5-5-5-0---0---0---0---0--|
A|--5-5-5-5-5-5-5-5-5-5-5-5-5-5-5-5-0---0---0---0---0--|
D|--5-5-5-5-5-5-5-5-5-5-5-5-5-5-5-5-0---0---0---0---0--|
     ^                     ^
     :---------PM----------:
guitar2:
e|----------0-------0--------------------------------------|
B|--3---------3-------3------------------------------------|
G|--2-----------2-------2---------------7---7/9---6---7\6--|
D|--0-------------0-------0--------------------------------|
A|--------------------------------------5---5/7---4---5\4--|
E|---------------------------------------------------------|

guitar1:
e|-----------------------------------------------------------------------|
B|-----------------------------------------------------------------------|
G|------6-6/7-6-------------------6-6/7-6--------------------------------|
D|-------------------4-4/5-4---------------4-4---------0----0----0----0--|
A|--4-4----------4-4----------4-4----------4-4---------0----0----0----0--|
D|--4-4----------4-4----------4-4----------4-4---------0----0----0----0--|
guitar2:
e|-----------------------------------------------------------------------|
B|-----------------------------------------------------------------------|
G|--------2---2--------2---2--------2---2--------2---2------7---7/9---6--|
D|----------4------------4------------4------------4---------------------|
A|----------------------------------------------------------5---5/7---4--|
E|------2------------2------------2------------2-------------------------|

guitar1:
e|-----------------------------------------------------------------------|
B|-----------------------------------------------------------------------|
G|------6-6/7-6-------------------6-6/7-6--------------------------------|
D|-------------------4-4/5-4---------------4-4---------5----5----5----5--|
A|--4-4----------4-4----------4-4----------4-4---------5----5----5----5--|
D|--4-4----------4-4----------4-4----------4-4---------5----5----5----5--|
guitar2:
e|-----------------------------------------------------------------------|
B|----------2------------2------------2------------2---------------------|
G|------------2------------2------------2------------2----------6-7-6----|
D|--------4------------4------------4------------4-----------------------|
A|--------------------------------------------------------------4-5-4----|
E|------2------------2------------2------------2-------------------------|

ChOrUs:
guitar1:
e|-------------------5---5-5-------------------------------------------------------|
B|---------------------------------------------------------------------------------|
G|----------------------------------------------------------------7------6---------|
D|---0-------------4---4-------------5-----------------------9-----------------7---|
A|---0-------------4---4-------------5-----------------------9---------------------|
D|---0-------------4---4-------------5-----------------------9---------------------|
guitar2:
e|---------------------------------------------------------------------------------|
B|---------------------------------------------------------------------------------|
G|---9\-----7\-----6\----------2-----4---------------------------------------------|
D|-----------------------------------------2-----4---------------------------------|
A|-----------------------------------------------------4-----5-----0-----2-----0---|
E|---------------------------------------------------------------------------------|

before verse2:
guitar1:
e|---------------------|
B|---------------------|
G|---------------------|
D|-------2h4-5-4-------|
A|---4h5---------4h5---|
D|---------------------|
guitar2:
e|---------------------|
B|---------------------|
G|---------------------|
D|-----------4-2-6h7---|
A|---------------------|
E|---------------------|

VeRsE2:
guitar1:
e|-----------------------------------------------------|
B|-----------------------------------------------------|
G|-----------------------------------------------------|
D|--5-5-5-5-5-5-5-5-5-5-5-5-5-5-5-5-0---0---0---0---0--|
A|--5-5-5-5-5-5-5-5-5-5-5-5-5-5-5-5-0---0---0---0---0--|
D|--5-5-5-5-5-5-5-5-5-5-5-5-5-5-5-5-0---0---0---0---0--|
     ^                     ^
     :---------PM----------:
guitar2:
e|-----------------------------------------------------|
B|----------3--------3---------------------------------|
G|------------2--------2----------------7---7/9---6----|
D|--------------0--------0-----------------------------|
A|----------------0--------0------------5---5/7---4----|
E|-----------------------------------------------------|

guitar1:
e|-------------------------------------------------------------|
B|-------------------------------------------------------------|
G|-------------------------------------------------------------|
D|--5-5-5-5-5-5-5-5-5-5-5-5-5-5-5-5-0---0---0---0---0----------|
A|--5-5-5-5-5-5-5-5-5-5-5-5-5-5-5-5-0---0---0---0---0----------|
D|--5-5-5-5-5-5-5-5-5-5-5-5-5-5-5-5-0---0---0---0---0----------|
     ^                     ^
     :---------PM----------:
guitar2:
e|-------------------------------------------------------------|
B|--3--------3-------3-----------------------------------------|
G|--2----------2-------2----------------7---7/9---9/11---11\9--|
D|--0------------0-------0-------------------------------------|
A|-----------------0-------0------------5---5/7---7/9----9\7---|
E|-------------------------------------------------------------|

guitar1:
e|-----------------------------------------------------------------------|
B|-----------------------------------------------------------------------|
G|------6-6/7-6-------------------6-6/7-6--------------------------------|
D|-------------------4-4/5-4---------------4-4---------0----0----0----0--|
A|--4-4----------4-4----------4-4----------4-4---------0----0----0----0--|
D|--4-4----------4-4----------4-4----------4-4---------0----0----0----0--|
guitar2:
e|-----------------------------------------------------------------------|
B|----------2-------------------------2----------------------------------|
G|------------2----------2h4-2----------2----------2h4-2----7---7/9---6--|
D|--------4------------4------------4------------4-----------------------|
A|----------------------------------------------------------5---5/7---4--|
E|------2------------2------------2------------2-------------------------|

guitar1:
e|-----------------------------------------------------------------------|
B|-----------------------------------------------------------------------|
G|------6-6/7-6-------------------6-6/7-6--------------------------------|
D|-------------------4-4/5-4---------------4-4---------5----5----5----5--|
A|--4-4----------4-4----------4-4----------4-4---------5----5----5----5--|
D|--4-4----------4-4----------4-4----------4-4---------5----5----5----5--|
guitar2:
e|-----------------------------------------------------------------------|
B|----------2------------2------------2------------2---------------------|
G|------------2------------2------------2-----------------------6-7-6----|
D|--------4------------4------------4------------4-----------------------|
A|--------------------------------------------------------------4-5-4----|
E|------2------------2------------2------------2-------------------------|


REPEAT CHORUS...

guitar1:
e|---------------------------------------------------------------------------------|
B|---------------------------------------------------------------------------------|
G|---------------------------------------------------------------------------------|
D|---2-------0-------6-------4-------2-------4-------5----9---2--------4-------5---|
A|---2-------0-------4-------2-------2-------4-------5----9---2--------4-------5---|
D|---2-------0-----------------------2-------4-------5----9---2--------4-------5---|
guitar2:
e|---------------------------------------------------------------------------------|
B|---------------------------------------------------------------------------------|
G|---------------------------------------------------------------------------------|
D|-----5-4-----5-4-----5-4-----5-4-----5-4-----5-4---------------5-4-----5-4-------|
A|---------5-5-----5-4-----5-2-----5-5-----5-5-----5-5---------------5-5-----5-5---|
E|---------------------------------------------------------------------------------|

bRiDgE:
guitar1:
e|-----------------------------------------------------------------------------------|
B|---10-------------------7----------------------------------------------------------|
G|---9--------------------7----9----------------9/--11-------------------------------|
D|---7--------------------7----11---------------11/-12-5/-7\-2/-4--------------------|
A|-----------------------------------------------------7/-9\-4/-5----------0--2--0---|
D|-----------------------------------------------------------------------------------|
     ^                                                                           ^
     :---------------------------------repeat 2x---------------------------------:
guitar2:
e|-----------------------------------------------------------------------------------|
B|---5------5-----5-------3----2-----------2-------------------3-----2h3------2------|
G|---2----2---2-----2---2------2-----2-------2---2/-4------------2-------2-------2---|
D|---0--0-------0-----0--------4---4---4-------4------2/-4---------4-------4---------|
A|-------------------------------4-------4-----------------4-------------------------|
E|-----------------------------------------------------------------------------------|
     ^                                                                           ^
     :---------------------------------repeat 2x---------------------------------:

(this part for both guitars, juzt do the strumming pattern the way they strum it...)
guitar1:
e|---------------------------------------------------------------------------|
B|---10-----7----------------------------------------------------------------|
G|---9------7-----9------9/----11--------------------------------------------|
D|---7------7-----11-----11/---12---5/-----7\----2/----4---------------------|
A|----------------------------------7/-----9\----4/----5-----0-----2-----0---|
D|---------------------------------------------------------------------------|
guitar2:
e|---------------------------------------------------------------------------|
B|---------------------------------------------------------------------------|
G|---9\-----7\----6\-----2-----4---------------------------------------------|
D|-----------------------------------2-----4---------------------------------|
A|-----------------------------------------------4-----5-----0-----2-----0---|
E|---------------------------------------------------------------------------|

guitar1:
e|---------------------------------------------------------------------------|
B|---10-----7----------------------------------------------------------------|
G|---9------7-----9------9/----11----------------------6---9---11------------|
D|---7------7-----11-----11/---12---5/-----7\----2/--------------------------|
A|----------------------------------7/-----9\----4/----4---7---9-------------|
D|---------------------------------------------------------------------------|
guitar2:
e|---------------------------------------------------------------------------|
B|---------------------------------------------------------------------------|
G|---9\-----7\----6\-----2-----4---------------------------------------------|
D|-----------------------------------2-----4---------------------------------|
A|-----------------------------------------------4-----5-----0-----2-----0---|
E|---------------------------------------------------------------------------|

guitar1:
e|---------------------------------------------------------------------------|
B|---10-----7----------------------------------------------------------------|
G|---9------7-----9------9/----11--------------------------------------------|
D|---7------7-----11-----11/---12---5/-----7\----2/----4---------------------|
A|----------------------------------7/-----9\----4/----5-----0-----2-----0---|
D|---------------------------------------------------------------------------|
guitar2: (keep repeating for this part...)
e|---9--9----------------|
B|---10-10-10-10---------|
G|---------11-11---------|
D|---------------11-12---|
A|-----------------------|
E|-----------------------|

guitar1:
e|-------------------------------------|
B|-------------------------------------|
G|---9/-11--9/-11--14--9/11--6/-7/-9---|
D|-------------------------------------|
A|---7/-9---7/-9---12--7/9---4/-5/-7---|
E|-------------------------------------|
     ^                             ^
     :----------repeat 2x----------:
guitar2: (keep repeating for this part...)
e|---9-9-------------------------------|
B|-------10-10-------------------------|
G|-------------------------------------|
D|-------------11-12-------------------|
A|-------------------------------------|
D|-------------------------------------|

oUtRo:
guitar1:
e|---------------------------------------------|
B|---------------------------------------------|
G|---2-4-2-0-------------2-4-2-0---------------|
D|-----------5-5-5-5-5-5---------4-4-4-4-4-4---|
A|-----------5-5-5-5-5-5---------4-4-4-4-4-4---|
D|-----------5-5-5-5-5-5---------4-4-4-4-4-4---|
     ^                                     ^
     :--------------repeat 2x--------------:
guitar2:
e|---------------------------------------------|
B|---------------------------------------------|
G|---------------------------------------------|
D|---4-5-4-0-5-5-5-5-5-5-4-5-4-0-4-4-4-4-4-4---|
A|-----------5-5-5-5-5-5---------4-4-4-4-4-4---|
E|-----------3-3-3-3-3-3---------2-2-2-2-2-2---|
     ^                                     ^
     :--------------repeat 2x--------------:

guitar1:
e|---------------------------------------------------------------------|
B|---------------------------------------------------------------------|
G|---2-4-2-0-------------------------2-4-2-0---------------------------|
D|-----------5-5-5-5-5-5---------------------4-4-4-4-4-4---------------|
A|-----------5-5-5-5-5-5---------------------4-4-4-4-4-4---------------|
D|-----------5-5-5-5-5-5---------------------4-4-4-4-4-4---------------|
     ^                                                 ^
     :--------------------repeat 2x--------------------:
guitar2:
e|---------------------------------------------------------------------|
B|-----------------------5-5-5---------------------------5-5-5---------|
G|-----------6-6-6-------------6-6-6---------6-6-6-------------6-6-6---|
D|---4-5-4-0-------7-7-7-------------4-5-4-0-------7-7-7---------------|
A|---------------------------------------------------------------------|
E|---------------------------------------------------------------------|
     ^                                                 ^
     :--------------------repeat 2x--------------------:

guitar1:
e|-------------|
B|-------------|
G|---2-4-2-0---|
D|-------------|
A|-------------|
D|-------------|
guitar2:
e|-------------|
B|-------------|
G|-------------|
D|---4-5-4-0---|
A|-------------|
E|-------------|

Key:

T   - Tap (Strings)
PM  - Palm Muting
/   - Slide Up
\   - Slide Down
h   - Hammer-on
p   - Pull-off
~   - Let the note ringing
s   - Strum softly
c   - Continue and Continuation
^   - Bend
*   - Harmonics

<---------------chords--------------->
chordz info:
Dsus2 - 000320
G     - 355433
F#m   - 244222
Bm    - 024432
Em    - 022000
C#m   - 046654


intro:
G-F#m
G-F#m

verse:
G - Dsus2
G - Dsus2
F#m - Dsus2
F#m - G

chorus:
Dsus2 - F#m - G - Bm
Dsus2 - F#m - G - Bm

bridge:
Em - Dsus2 - C#m - Bm
Em - F#m - G - Bm
Em - F#m - G

Dsus2 - F#m - G - Bm
Dsus2 - F#m - G - Bm
(juzt keep repeating for the entire bridge -> Dsus2 - F#m - G - Bm)


<---------------lyrics--------------->
verse:
standard pick-up lines that seems to wreck your bones
can this be a sequel of my dying hope?
chasing down a never ending make-believe
but you're a perfect match of consistency

chorus:
will you come back in a heartbeat?
don't be confused of what a great thing we could be
we'll take a walk at the same street
can you tell me how Boston is like without me?

verse:
and you're stamp beneath the end sides of my heart
now you're gone I don't know where to start
the evidence is showing like a stable apprehension
but you're the only one who's apt for this affection

repeat chorus
Suggest correction new What's this?
You can suggest a correction to this tab. Community and Mods will review your correction and vote to approve or reject it.
comments
print report bad tab
5 comments total. Showing first comments.
0 reply
doobidoo 8,723 wrote on July 20 2007, 11:28 pm

YOW..
dROP d--

g1
|-------------------------------------------------------|
|-----------7--5---------2-3-----------------------------|
|-9---------7--6---------2-4-----------------------------| 2x
|-7---------7--7---------4-5--5-5/7---2-4---2------------|
|-5---------5--5--------------7-7/9---4-5---0--2--0------|
|--------------------------------------------------------|

g2 2x

|--------------------------------------------|---------------------|
|-------------7-5------------2-3-------------|---------------------|
|-9--9---9----7-6------6-----2-4-------------|---------------------|
|-7---7---7-7-7-7---7----7---4-5--5-5/7------|--11----11h12-11-----|
|-5-5--5---5------5--5-----5------7-7/9--7---|-----9-----------12--|
|----------------------------------------11--|9-----9--------------|



then-

then

|--------------------------------------------------------------------|
|------------7777-555555555-22223333---------------------------------|
|-9999999999-7777-666666666-22224444---------------------------------|
|-7777777777-7777-777777777-44445555--55557777-22224444--22244442222-|
|-------------------------------------77779999-44445555--00022220000-|
|--------------------------------------------------------------------|

|--------------------------------------------------------------------|
|-1010101010-7777-555555555-22223333---------------------------------|
|-9999999999-7777-666666666-22224444---------------------------------|
|-7777777777-7777-777777777-44445555--55557777-22224444444-----------|
|-------------------------------------77779999-44445555555-----------|
|--------------------------------------------------------------------|

Intro-

Guitar1
|------------------------------------------------|
|------------------------------------------------|
|------------------------------------------------| 4x
|-7h9-7p5--7-7-7-7-7-7-7-7h9-7-7-7-7-7-7-7-7-7---|
|----------5-5-5-5-5-5-5---------7-7-7-7-7-7-7---|
|----------5-5-5-5-5-5-5---------4-4-4-4-4-4-4-=-|

Guitar2
|------------------------------------------------|
|------------------------------------------------|
|------------------------------------------------| 4x
|-7h9-7p5--7-7-7-7-7-7-7-7h9-7-7-7-7-7-7-7-7-7---|
|----------5-5-5-5-5-5-5---------4-4-4-4-4-4-4---|
|----------5-5-5-5-5-5-5---------4-4-4-4-4-4-4---|

0 reply
doobidoo 8,723 wrote on July 23 2007, 05:30 am

oi sa sacre ka pa rin b? sali mo ko banda sa band mo ...ala ako band eh...tamang pambahay lang ang paggguitar ko...hehehe...

0 reply
silentrocker21 468 wrote on July 23 2007, 10:39 pm

hehe, grad na ko tol last 2005 pa eh, comsci... hehehe...;p ano nga ulit course mo? add mo na lang ako sa friendster... hehehe...;p lorenz10_15@yahoo.com thankz... cordianz rockz!!!\m/\m/

guest
You may want to rate the tab now too:
select rating
Please do not post tabs as comments. Select "correction" instead!