Oops, an error
Loading. Please wait.

Breathe Through The Glass Tab

941 views 1 this week
1 commentread comment
1 2 3 4 5
please rate
add to favorites
launch autoscroll
font size
0
reset
how to read this tab
guitar tuner
Autoscroll
slow
fast
+/-
esc
set tempo
stop
Help us to improve Ultimate-Guitar.com Take our survey!
×
Author
Difficulty
Tuning
intermediate
D A D G B E
Breathe Through The Glass tab by Typecast

Tabbed by: Czerald G. Guevarra - biboy_0916@yahoo.com
Tuning	 : Drop D
Legend	 : \ / - slide
	   h - hammer on
	   p - pull off
	   • - palm mute
	   b - bend
	   x - mute
         [1] - guitar #1
         [2] - guitar #2
===============================================================================================
VERSE 1: (Clean)
[1] The days has ended and so has life...
e||-----------------------------8-5-----5---------------|
B||-6---6---5-6-----5-6---6---6-------6-----6-8-6---8-6-|
G||--5----5-----5-------5---5-------5-----5-------5-----|
D||---0-----------0-------------------------------------|
A||-----------------------------------------------------|
D||-----------------------------------------------------|

  The crashing wind that blinds my eyes...
e||---------------------------------------------------|
B||---6---5-6-----5-6---6---6-------6-----6-8-6---8-6-|
G||-----5-----5-------5---5-------5-----5-------5-----| (3x)
D||-0-----------0-------------------------------------|
A||---------------------------------------------------|
D||---------------------------------------------------|
===============================================================================================
(Distortion)
[1]
e||-------------------------------------------|
B||-------------------------------------------|
G||--------10\9-----10/9----------------------| (2x)
D||----000------000------1010101010\777-7h8-7-|
A||-10\000--8\7-000--7/8--8-8-8-8-8\555-------|
D||----000------000-------8-8-8-8-8\555-------|

[2]
e||---------------------------------------------|
B||---------------------------------------------|
G||---------------------------------------------|
D||----000-----000-5/7-88888-55555-(Repeat)--0--|
A||----000-8\7-000-----88888-55555-----------0--|
D||----000-----000-----88888-55555-----------0--|

[1] (Clean)
e||-------------------------------------------------------------------------------------|
B||---6---5-6-----6---5-6-----6---5-6-----6---5-6-----6---5-6-----6---5-6-----6---5-6---|
G||-----5-----5-----5-----5-----5-----5-----5-----5-----5-----5-----5-----5-----5-----5-|
D||-0-----------0-----------0-----------0-----------0-----------0-----------0-----------|
A||-------------------------------------------------------------------------------------|
D||-------------------------------------------------------------------------------------|

[2]
e||-------------------------------------------------------------------------------------|
B||-------------------------------------------------------------------------------------|
G||-------------------------------------------------------------------------------------|
D||------------------------------------------------•0x----------------------------------|
A||------------------------------------------------•0x----------------------------------|
D||------------------------------------------------•0x----------------------------------|
===============================================================================================
(Distortion)
[1] Write down every heart-felt moment        Teach me how to smile
e||-----------------------------------------------------------------|
B||-----------------------------------------------------------------|
G||-----------------------------------------------------------------| (2x)
D||-101010101010101010101010101010-777777----55-3333333-22222-33333-|
A||--8-8-8-8-8-8-8-8-8-8-8-8-8-8-8--------00------------------------|
D||--8-8-8-8-8-8-8-8-8-8-8-8-8-8-8--------00------------------------|

[2]
e||--------------------------------------------|
B||--------------------------------------------|
G||--------------------------------------------| (2x)
D||-88888888888888888888-0000000000-7777777777-|
A||-88888888888888888888-0000000000-7777777777-|
D||-88888888888888888888-0000000000-7777777777-|

[1] Can i ask you to hold me?
e||-------------------------------------------------------------------|
B||-------------------------------------------------------------------|
G||-------------------------------------------------------------------|
D||-7----7---1010-----7---1010-----10-8----8---1010-----8---1010---10-|
A||-7-•7--•7-----•7•7--•7-----•7•7----8-•8--•8-----•8•8--•8-----•8----|
D||-7-•7--•7-----•7•7--•7-----•7•7----8-•8--•8-----•8•8--•8-----•8----|

				Just one time
e||--------------------------------------------------------------|
B||--------------------------------------------------------------|
G||----1010-9----1010-9----9-------------------------------------|
D||-00--------00--------00---8----8---1010-----8---1010-----10---|
A||-00--8-8-7-00--8-8-7-00-7-8-•8--•8-----•8•8--•8-----•8•8---•7-|
D||-00--------00--------00---8-•8--•8-----•8•8--•8-----•8•8---•7-|

[2]
e||-------------------------------------------------------------------|
B||-------------------------------------------------------------------|
G||-------------------------------------------------------------------|
D||-7-•7-7-•7-77-•7•7-7-•7-77-•7•7-7-•8•8-8-•8-88-•8•8-8-•8-88-•8•8-8-|
A||-7-•7-7-•7-77-•7•7-7-•7-77-•7•7-7-•8•8-8-•8-88-•8•8-8-•8-88-•8•8-8-|
D||-7-•7-7-•7-77-•7•7-7-•7-77-•7•7-7-•8•8-8-•8-88-•8•8-8-•8-88-•8•8-8-|

e||-----------------------------------------------------------|
B||-----------------------------------------------------------|
G||-----------------------------------------------------------|
D||-•0•0-000-•0•0-000-•0•0-0-7-•7-7-•7-77-•7•7-7-•7-77-•7•7-7-|
A||-•0•0-000-•0•0-000-•0•0-0-7-•7-7-•7-77-•7•7-7-•7-77-•7•7-7-|
D||-•0•0-000-•0•0-000-•0•0-0-7-•7-7-•7-77-•7•7-7-•7-77-•7•7-7-|

[1] 		      I am waiting for someone...
e||-----------------------------------------------------------------------|
B||-----------------------------------------------------------------------|
G||-----------------------------------------------------------------------|
D||-7----7---1010-----7---1010-----10-8----8---1010-----8---1010---10\\\0-|
A||-7-•7--•7-----•7•7--•7-----•7•7----8-•8--•8-----•8•8--•8-----•8--------|
D||-7-•7--•7-----•7•7--•7-----•7•7----8-•8--•8-----•8•8--•8-----•8--------|

[2]
e||-----------------------------------------------------------------------|
B||-----------------------------------------------------------------------|
G||-----------------------------------------------------------------------|
D||-7-•7-7-•7-77-•7•7-7-•7-77-•7•7-7-•8•8-8-•8-88-•8•8-8-•8-88-•8•8-8\\\0-|
A||-7-•7-7-•7-77-•7•7-7-•7-77-•7•7-7-•8•8-8-•8-88-•8•8-8-•8-88-•8•8-8\\\0-|
D||-7-•7-7-•7-77-•7•7-7-•7-77-•7•7-7-•8•8-8-•8-88-•8•8-8-•8-88-•8•8-8\\\0-|
===============================================================================================
PRECHORUS:
[1]
e||--------------------------------|
B||--------------------------------|
G||--------------------------------|
D||-0000x-0000x-0000x-000-0000-----|
A||-0000x-0000x-0000x-000----------|
D||-0000x-0000x-0000x-000----------|

[2]
e||--------------------------------|
B||--------------------------------|
G||--------------------------------|
D||-0000x-0000x-0000x-0000x--------|
A||-0000x-0000x-0000x-0000x--------|
D||-0000x-0000x-0000x-0000x--------|
===============================================================================================
CHORUS:
[1] (i said nothing)	Wake me up when you're gone...
e||----------------------------------------------------------------------------------|
B||----------------------------------------------------------------------------------|
G||-----10\9-----9/10----------------------------------------------------------------| (2x)
D||-000------000------10101010101010101010101010101010-77777777777777875-------------|
A||-000--8\7-000-7/8---8-8-8-8-8-8-8-8-8-8-8-8-8-8-8-8-55555555555555555-------------|
D||-000------000-------8-8-8-8-8-8-8-8-8-8-8-8-8-8-8-8-55555555555555555-------------|

[2]
e||----------------------------------------------------------------------------------|
B||----------------------------------------------------------------------------------|
G||----------------------------------------------------------------------------------| (2x)
D||-0000x-000-5/7-----10101010101010101010101010101010-77777777777777777-------------|
A||-0000x-000----------8-8-8-8-8-8-8-8-8-8-8-8-8-8-8-8-55555555555555555-------------|
D||-0000x-000----------8-8-8-8-8-8-8-8-8-8-8-8-8-8-8-8-55555555555555555-------------|

[1] & [2]
e||-----------------------------|
B||-----------------------------|
G||-----------------------------|
D||-0000x-0000x-0000x-0000x-----|
A||-0000x-0000x-0000x-0000x-----|
D||-0000x-0000x-0000x-0000x-----|
===============================================================================================
VERSE 2: (Same as in verse 1)

CHORUS 2:
[1]
e||--------------------------------------------------------------------------------------|
B||--------------------------------------------------------------------------------------|
G||---------10\9-----9/10----------------------------------------------------------------| (4x)
D||-5-5-000------000------1010--•10•10-10-•10•10-10-•10•10-10\77-•7•7-77-•7•7-77-•7•7-7--|
A||-----000--8\7-000-7/8---8-8---•8-•8--8--•8-•8--8--•8-•8--8\55-•5•5-55-•5•5-55-•5•5-5--|
D||-----000------000-------8-8---•8-•8--8--•8-•8--8--•8-•8--8\55-•5•5-55-•5•5-55-•5•5-5--|

[2]
e||----------------------------------------------------------------------------------|
B||----------------------------------------------------------------------------------|
G||----------------------------------------------------------------------------------| (4x)
D||-0000x-000-5/7-----10101010101010101010101010101010-77777777777777777-------------|
A||-0000x-000----------8-8-8-8-8-8-8-8-8-8-8-8-8-8-8-8-55555555555555555-------------|
D||-0000x-000----------8-8-8-8-8-8-8-8-8-8-8-8-8-8-8-8-55555555555555555-------------|
===============================================================================================
OUTRO:
[1]
e||-----------------------------------------8----8-----------------------------------|
B||-----6-5------8----8/10-13-10-13-10\8------10---10-8----8----8------8-------------|
G||-5/7-----7/10---10--------------------10-------------10---10---10p9---10----------| (2x)
D||----------------------------------------------------------------------------------|
A||----------------------------------------------------------------------------------|
D||----------------------------------------------------------------------------------|

[1]
e||-----------------------------------------8----8-----------------------------------|
B||-----6-5------8----8/10-13-10-13-10\8------10---10-8----8----8------8-------------|
G||-5/7-----7/10---10--------------------10-------------10---10---10p9---10----------| (2x)
D||----------------------------------------------------------------------------------|
A||----------------------------------------------------------------------------------|
D||----------------------------------------------------------------------------------|

[2] (Listen to the song to know the timings here)
e||---------10------------14--10-----------------------------------------------------|
B||------------10-----------------10-------------------------------------------------|
G||----------------------------------------------------------------------------------|
D||-0----------------0------------------0--------------------------------------------|
A||-0----------------0------------------0--------------------------------------------|
D||-0----------------0------------------0--------------------------------------------|

END
Suggest correction
Give kudos to tab author, rate the tab!
1 2 3 4 5
comments
print report bad tab
1 comment total.
0 reply
paul21 618 wrote on April 19 2007, 12:42 am

This is Sounds like SevEn YeARs of Saosin right?? hehehe!!

guest
You may want to rate the tab now too:
select rating
Wanna post a correction for this tab? Suggest correction