Oops, an error
Loading. Please wait.

Bright Eyes Bass Tab

1,273 views 1 this week
no commentswrite comment
1 2 3 4 5
excellent!
x 1
add to favorites
launch autoscroll
font size
0
reset
guitar tuner
Tab Pro tools
  • play this tab
  • loop segment
  • change instrument
  • show fretboard
  • metronome
Autoscroll
slow
fast
+/-
esc
set tempo
stop
Contributor
Drop D
1.

GtrI

|-------------------------------------------------------------------|
|-------------------------------------------------------------------|
|-------------------------------------------------------------------|
|-10/-3-33------------------------3-33------------------------------|

2.

GtrI
|-------------------------------------------------------------------|
|-------------------------------------------------------------------|
|-------------------------------------------------------------------|
|-7-7-7-7-7-7-7-7-7-7-7-7-7-7-7-7-7-7-7-7-7-7-7-7-7-7-7-7-7-7-7-7-7-|


Verse-

|--------------------------------|----------------------------------|
|--------------------------------|----------------------------------|
|--------------------------------|----------------------------------|
|-333333333333333333333333333333-|-7777777777777777777777777777777--|


then 2x
GtrI
|----------------------------------------------------------------|
|----------------------------------------------------------------|
|----------------------------------------------------------------|
|-333333-3~----------------------333333-3~-----------------------|


|----------------------------------------------------------------|
|----------------------------------------------------------------|
|----------------------------------------------------------------|
|-777777-7~----------------------777777-7~-----------------------|


Interlude

|---------------------------------------------------|
|---------------------------------------------------|
|---------------------------------------------------|
|-5-0---3/2-8-7-5----5-0----3/2--8-7-5-3-0~-7-8-----|

|--------------------------------------------------------------------|
|--------------------------------------------------------------------|
|-3------------------3-----------------------------------------------|
|---5--8/7---0-2-3------5-8/7---8-7-5-3-0~-7-8--/--------------------|



|--------------------------------------------------------------------|
|--------------------------------------------------------------------|
|--------------------------------------------------------------------|
|-77777777777777-8888888888888888-00000000000000-33333333333333333---|

|--------------------------------------------------------------------|
|--------------------------------------------------------------------|
|--------------------------------------------------------------------|
|-77777777777777-8888888888888888-00000000000000-33333333333333333---|


then.interlude II
GtrI
|--------------------------------------------------|
|--------------------------------------------------|
|--------------------------------------------------|
|-000--88---00---88---000--88----00----------------|


|----------------------------------------------|
|----------------------------------------------|
|----------------------------------------------|
|-000--88----00---88---000--pause--------------|


Chorus1-
GtrI
|---------------------------------------------------------------------|
|---------------------------------------------------------------------|
|---------------------------------------------------------------------|
|-3-3-3-3-3-3-3-3-3-3-3-3-3-3-3-3-7-7-7-7-7-7-7-7-7-7-7-7-7-7-7-7-7-7-|


|---------------------------------------------------------------------|
|---------------------------------------------------------------------|
|---------------------------------------------------------------------|
|-3-3-3-3-3-3-3-3-3-3-3-3-3-3-3-3-7-7-7-7-7-7-7-7-7-7-7-7-7-7-7-7-7-7-|

Chorus(clean)
GtrI
|---------------------------------------------------------------------|
|---------------------------------------------------------------------|
|---------------------------------------------------------------------|
|-3~------------------------------7~----------------------------------|


then pre cho--
Chorus1-

|---------------------------------------------------------------------|
|---------------------------------------------------------------------|2x
|---------------------------------------------------------------------|
|-3-3-3-3-3-3-3-3-3-3-3-3-3-3-3-3-7-7-7-7-7-7-7-7-7-7-7-7-7-7-7-7-7-7-|

|---------------------------------------------------------------------|
|---------------------------------------------------------------------|
|---------------------------------------------------------------------|
|-3-3-3-3-3-3-3-3-3-3-3-3-3-3-3-3-7-7-7-7-7-7-7-7-7-7-7-7-7-7-7-7-7-7-|


the 

then
GtrI

|---------------------------------------------------------------------|
|---------------------------------------------------------------------|
|---------------------------------------------------------------------|
|-3-3-3-3-3-3-3-3-3-3-3-3-3-3-3-3-7-7-7-7-7-7-7-7-7-7-7-7-7-7-7-7-7-7-|





then

|---------------------------------------------------------------------|
|---------------------------------------------------------------------|
|---------------------------------------------------------------------|
|-3-3-3-3-3-3-3-3-3-3-3-3-3-3-3-3-7-7-7-7-7-7-7-7-7-7-7-7-7-7-7-7-7-7-|


|-----------------------------------|
|-----------------------------------|
|-----------------------------------|
|-3-3~~~~~~~~~~~~~~~----------------|


comments
We did not receive enough feedback on this tab! Please rate:
print report bad tab
1 2 3 4 5
I want to post or [tab]
guest
You may want to rate the tab now too:
select rating
Please do not post tabs as comments. Select "correction" instead!