Oops, an error
Loading. Please wait.

Bright Eyes Tab

version 1
version 1

Whole song

5,845 views 12 this week
3 commentsread comments
1 2 3 4 5
accurate
x 3
add to favorites
launch autoscroll
font size
0
reset
how to read this tab
guitar tuner
Autoscroll
slow
fast
+/-
esc
set tempo
stop
Help us to improve Ultimate-Guitar.com Take our survey!
×
Typecast
Bright Eyes
Every Moss and Cobweb
Tabbed by: paramore_fans@yahoo.com or add nyo ako sa friendster. n2sed_182@yahoo.com
If you lov emo genre or you're a fan of avril lavigne, approve agad kayo mga tol!!

Tuning: Dropped D both guitars

Intro:

Guitar 1: x means palm mute
                            x2 this bar
e|------------------|---------------------------------|
B|------------------|---------------------------------|
G|-5----------------|---------------------------------|
D|-5-3--3----3--3---|-7-7-7-7-7-7-7-7-7-7-7-7-7-7-7-7-|
A|-3-3--3----3--3---|-7-7-7-7-7-7-7-7-7-7-7-7-7-7-7-7-|
D|---3--3----3--3---|-7-7-7-7-7-7-7-7-7-7-7-7-7-7-7-7-|
                        x x   x x   x x   x x   x   x

Guitar 2:
e|----------------------|
B|----------------------|
G|----------------------|
D|--5---0---2h3p2-0-----| (x8)
A|----3---3---------3h0-|
D|----------------------|


Verse 1: I know that you can’t hear My mind is screaming your name

Guitar 1:
               x2                                  x2
e|---------------------------------|---------------------------------|
B|---------------------------------|---------------------------------|
G|---------------------------------|---------------------------------|
D|-3-3-3-3-3-3-3-3-3-3-3-3-3-3-3-3-|-7-7-7-7-7-7-7-7-7-7-7-7-7-7-7-7-| (x2)
A|-3-3-3-3-3-3-3-3-3-3-3-3-3-3-3-3-|-7-7-7-7-7-7-7-7-7-7-7-7-7-7-7-7-|
D|-3-3-3-3-3-3-3-3-3-3-3-3-3-3-3-3-|-7-7-7-7-7-7-7-7-7-7-7-7-7-7-7-7-|
   x x   x x   x x   x x   x   x     x x   x x   x x   x x   x   x

Guitar 2:
           x2                         x2
e|-------3------3------3-|-------7------7------7------|
B|-0h1------0h1----0h1---|---8------8------8------8---|
G|-----0-----------------|-9---9------9------9------9-|
D|-----------------------|----------------------------| (x2)
A|-----------------------|----------------------------|
D|-----------------------|----------------------------|


With the waves of my dreams I curse myself for looking your way

Guitar 1:
      x2        x2
e|---------|---------|
B|---------|---------|
G|---------|---------|
D|-3-3-3-3-|-7-7-7-7-| (x2)
A|-3-3-3-3-|-7-7-7-7-|
D|-3-3-3-3-|-7-7-7-7-|
   x x x     x x x

Guitar 2:
                                               x2
e|-----------------------------------|-3---3-----0-0-0-0-0-|
B|-----------------------------------|---------3-----------|
G|-0/5-5-5-5-5-5-5---5/9-9-9-9-9-9-9-|---2---2-------------|
D|-----------------------------------|---------------------|
A|-----------------------------------|---------------------|
D|-----------------------------------|---------------------|


Interlude 1: Drum Beat switches from 4/4 to 3/4

Guitar 1:
e|------------------|------------------------------|
B|------------------|------------------------------|
G|------------------|------------------------------|
D|-0--0--0--8--8--8-|-0--0--0--8--8--8--8--8--7--5-| (x2)
A|-0--0--0--8--8--8-|-0--0--0--8--8--8--8--8--7--5-|
D|-0--0--0--8--8--8-|-0--0--0--8--8--8--8--8--7--5-|

Guitar 2:
          x2                   x2
e|-------------------|--------------------|
B|-------------------|--------------------|
G|-------------------|-5h0--3h0--7--9--10-|
D|-5h0--3h0--3--2--3-|-5h0--3h0--7--9--10-|
A|-0----0----1--2--3-|-0----0----5--7---8-|
D|-0----0----0--2--3-|-0----0----0--0---0-|


Verse 2: I can never tell if our eyes are meeting (Drum beat switches back to 4/4)

Guitar 1: palm mute in 2nd turn
e|-----------------------------|
B|-----------------------------|
G|-----------------------------|
D|-7(x16)-8(x16)-0(x16)-3(x16)-| (x2)
A|-7(x16)-8(x16)-0(x16)-3(x16)-|
D|-7(x16)-8(x16)-0(x16)-3(x16)-|

Guitar 2: Will enter at 2nd turn only
         x2                x2               x2
e|----------------|----------------|----------------|--------|
B|----------------|----------------|----------------|--------|
G|-------5--------|-------5--------|-------5--------|-5(x16)-|
D|-2h3p2----------|-2h3p2----------|-2h3p2----------|-3(x16)-|
A|----------0-0-0-|----------1-1-1-|----------------|-3(x16)-|
D|----------------|----------------|----------0-0-0-|-3(x16)-|


Interlude 2: Drum beat switches back to 3/4 again

Guitar 1:
        x3         *=harmonics
e|--------------|--------|
B|--------------|--------|
G|--------------|-----5*-|
D|-0-0--1--1--1-|-0-0----|
A|-0-0--1--1--1-|-0-0----|
D|-0-0--1--1--1-|-0-0----|

Guitar 2:
         x3                This cool riff before Chorus
e|----------------|--------6-----4-5-6-|
B|----------------|----------5-4-------|
G|-15-15---15--15-|-15-15--------------|
D|--x--x----x---x-|--x--x--------------|
A|-13-13---13--13-|-13-13--------------|
D|----------------|--------------------|


Chorus: Lying face to face, your bright eyes cradles me

Guitar 1: x8
e|---------------|
B|---------------|
G|---------------|
D|-3(x24)-7(x24)-|
A|-3(x24)-7(x24)-|
D|-3(x24)-7(x24)-|

Guitar 2: x2
e|----------------------------|
B|----------------------------|
G|-5-5-------12--12--7/9--4/5-|
D|-3-3---7-7--x---x--x/x--x/x-|
A|-3-3---7-7-10--10--5/7--2/3-|
D|-3-3---7-7------------------|
then
      x16
e|-----------|
B|-----------|
G|-4h5p4h5---|
D|---------5-|
A|-----------|
D|-----------|

(Repeat Intro till fade out)

_____________________________________________________

Lyrics:

I know that you can’t hear
My mind is screaming your name
Your smiles that crushes my chest with the waves of
With the waves of my dreams
I curse myself for looking your way
With the waves of
With the waves my dreams
I curse myself for looking your way
I can never tell if our eyes are meeting
My heart is racing, what are we avoiding
I must be dreaming
I can never tell
Lying face to face
Your bright eyes cradles me and I’m
Wishing you’re here when I wake up
Is this too much to ask? Or is this enough
If this is a dream then I don’t want to wake up
Suggest correction new What's this?
You can suggest a correction to this tab. Community and Mods will review your correction and vote to approve or reject it.
comments
We did not receive enough feedback on this tab! Please rate:
print report bad tab
1 2 3 4 5
3 comments total.
0 reply
miahhh 11 wrote on February 19 2007, 07:58 pm

mga typecast chongz...
try nio pho this tab!!!! ok!

0 reply
paul21 911 wrote on May 5 2007, 11:33 pm

astigin!! 5stars

0 reply
paul21 911 wrote on December 14 2007, 07:26 am



e|-----|
B|-----|
G|-----|
D|--5p0-3p0-8-7-5--5p0-3p
0--88-77-55-3-7-8-----|
A|-----8-7-5-----88-77-55
-3-7-8-----|
D|-----8-7-5-----88-77-55
-3-7-8-----|

guest
You may want to rate the tab now too:
select rating
Please do not post tabs as comments. Select "correction" instead!