Oops, an error
Loading. Please wait.

Can I Try My Luck On You Tab

619 views 1 this week
1 commentread comment
1 2 3 4 5
please rate
add to favorites
launch autoscroll
font size
0
reset
how to read this tab
guitar tuner
Autoscroll
slow
fast
+/-
esc
set tempo
stop
Help us to improve Ultimate-Guitar.com Take our survey!
×
Author
Difficulty
intermediate
Song:Can i try mu luck on you
Artist:Typecast
Album:Last Time
Tabbed by:Adrian...(emo_adrian13@yahoo.com)add nyo me s friendster!!


intro (clean)

do you remember?

  G            A            Bm          C
E------3--------------------------------------------|
B--------3---------2-------------3-----------1------|
G--------------------2-------------4-----------2----|
D----------------2------------4------------3--------|
A---2----------0------------2-----------0-----------|
E-3-------------------------------------------------|


  G            A            Bm          C
E------3--------------------------------------------|
B--------3---------2-------------3------1~~---------|
G--------------------2-------------4----2~~---------|
D----------------2------------4---------3~~---------|
A---2----------0------------2-----------0~~---------|
E-3-------------------------------------------------|

tpos bass muna

E--------------------------------| x2
A--------------------------------|
D-2222--5555---------------------|
G-------------3333--222--5555----|

tpos e2....(distortion ON!!!)

E--------------------------------| x2?
B--------------------------------|
G-444--777-----------------------|   tpos strum nyo ung intro chords
D-444--777--555-444777-----------|   ng 2x..(G-A-Bm-C 2x)
A-222--555--555-444777-----------|
E-----------333-222555-----------|


ive waited...
(d accurate ung timing k0....kau n bhala dun bsta bgay ko nlng ung chords)

E------------------------------------------------------------|
B------------------------------------------------------------|
G-44444444444444444444444------------------------------------|
D-44444444444444444444444---5555555544444444--7777-----------|
A-22222222222222222222222---5555555544444444--7777-----------|
E=--------------------------3333333322222222--5555-----------|
  .......................

did it ever crossed ur mind?

E--------------------------------------------------------------------|
B--------------------------------------------------------------------|
G--------------------------------------------------------------------|
D-222222222222222222222222-------4--55555555---5555-4444-------------|
A-222222222222222222222222-------4--55555555-------------5555-2222---|
E-000000000000000000000000----0~-2~-33333333-------------------------|

falling out of place....

E-----3-2----3-2-----3-2------3-2--------------------------3-------------|
B---------------------------------------3--------3------------3-----2----|
G---2------2-------2-------2--------------4--------4-------------------2-|
D-0------0-------0-------0------------4--------4------------------2------|
A-----------------------------------2--------2----------2-------0--------|
E-----------------------------------------------------3------------------|


paulit ulit lng yan...mejo magulo lng kc ala me hawak n gitara hbang gngawa 2..pg my my 
ggwa nlng me ng bgo...pikinggang nyo nlng ung song pra maintindihan nyo....pki rate ng 
h!!..hehe...\m/

...uu nga pla....dun s my alam ng tabz ng iba png song ng typecast n wla p d2 s 
p0st nman...hehe..piz
Suggest correction
Give kudos to tab author, rate the tab!
1 2 3 4 5
comments
print report bad tab
1 comment total.
0 reply
vendettas 30 wrote on June 18 2010, 06:15 am

50% wrong....

guest
You may want to rate the tab now too:
select rating
Please do not post tabs as comments. Select "correction" instead!