Oops, an error
Loading. Please wait.

Clutching Bass Tab

732 views 1 this week
no commentswrite comment
1 2 3 4 5
please rate
add to favorites
launch autoscroll
font size
0
reset
guitar tuner
Autoscroll
slow
fast
+/-
esc
set tempo
stop
Help us to improve Ultimate-Guitar.com Take our survey!
×
Author
Artist:Typecast
Song:Clutching
Tabbed by: Ram Red (09196228339)
Email:alexisonfire066@yahoo.com

~ - let it ring
/ - slide

Standard

Intro Part 1

G|----------------------------------------|
D|----------------------------------------|
A|--0~-----2~---4~-------0---2---4--------|
E|----------------------------------------|

Intro Part 2

G|---------------------------------------------------|
D|---------------------------------------------------|
A|------------------------4--------2--------0--------|
E|--0----0----2----2---------------------------------|

Verse

G|----------------------------------------------|
D|----------------------------------------------| 2x
A|--------------------4-4-4-4--2-2-2-2-0-0-0-0--|
E|--0-0-0-0--2-2-2-2----------------------------|


Pre-Chorus
G|--------------------------------------------|
D|--------------------------------------------|
A|--4-4-4-4-4-4--0-0-0-0-0-0-4-4-4-4-0-0-0-0--|
E|--------------------------------------------|

Repeat Intro

G|----------------------------------------|
D|----------------------------------------|
A|-------------4~----0~---000000000-------|
E|--0~---2~-------------------------------|

Chorus
  by the sound of your message....
G|-------------------------------------------------------------|
D|-------------------------------------------------------------|
A|-----------------------------------4-4-4-4--2-2-2-2--0-0-0-0-| 2x
E|--0-0-0-0-0-0-0-0-2-2-2-2-2-2-2-2----------------------------|

Post-Chorus
  why does it have to be like this..
G|--------------------------------------------|
D|--------------------------------------------|
A|--4-4-4-4-4-4--0-0-0-0-0-0-4-4-4-4-0-0-0-0--| 2x
E|--------------------------------------------|

Then Back to this
G|----------------------------------------|
D|----------------------------------------|
A|--0~-----2~---4~-------0---2---4--------|
E|----------------------------------------|

Bridge
  i thought it was okay...
G|-------------------------------------------------------------|
D|-------------------------------------------------------------|
A|-----------------------------------4-4-4-4-/2-2-2-2--0-0-0-0-| 2x
E|--0-0-0-0-0-0-0-0-2-2-2-2-2-2-2-2----------------------------|

 my name......
G|-------------------------------------------------------------|
D|-------------------------------------------------------------|
A|-----------------------------------4-4-4-4/2-2-2-2--0-0-0-0--| 2x
E|--0-0-0-0-0-0-0-0-2-2-2-2-2-2-2-2----------------------------|

Outro

G|----------------------------------------|
D|----------------------------------------|
A|--0~-----2~---4~-------0---2---4--------|
E|----------------------------------------|
Suggest correction
Give kudos to tab author, rate the tab!
1 2 3 4 5
comments
print report bad tab
guest
You may want to rate the tab now too:
select rating
Please do not post tabs as comments. Select "correction" instead!