Oops, an error
Loading. Please wait.

Clutching Tab

version 1
version 1

Whole song

7,787 views 1 this week
9 commentsread comments
1 2 3 4 5
accurate
x 7
add to favorites
launch autoscroll
font size
0
reset
how to read this tab
guitar tuner
Tab Pro tools
  • play this tab
  • loop segment
  • change instrument
  • show fretboard
  • metronome
×
Best way to learn
"Clutching"
Autoscroll
slow
fast
+/-
esc
set tempo
stop
Clutching
Typecast
Tabbed by : Enzo Vallejo Flores

2nd tab ko na 2 na pinost... ako ung gumawa ng tab ng infatuation is always there... 
nyo rin un... cgurado kong tama rin un. wag kayo tamarin na bsahin 2ng tab, lam kong mhaba 
paulit-ulit lang 2... pramis mdali lng 2.. hehe! cyempre tama rin 2... bsta dpat
pakinggan nyong mabuti ung kanta.. comments/suggestions... twelveblackmangoes_e@yahoo.com

>>> Standard Tuning (E A D G B e)

Intro: --> very light distortion.

e---------------0----------------0----------|
B--0---0---0-------0---0--0--0------0-------|
G--2---4---6-----------2--4--6--------------|
D--2---4---6-----------2--4--6--------------|
A--0---2---4-----------0--2--4--------------|
E-------------------------------------------|

>>> pagkatapos ng intro na un prang may mri2nig kayong kasabay nun na gani2... guitar 2 
alm kong tatlo lng cla.. pero alm ko rin na meron clang isa pang tao on guitars mnsan pg 
session cla.. khit ndi ksama sa band nla...

e-----12------|
B-----9-------|
G-------------|
D-------------|
A-------------|
E-------------|


>>> pluck.

e------------------0-----------------0------------0--|
B--------------------0------------0------------0-----|
G---1h2p1---1h2p1------1----1h2p1--------1h2p1-------|
D----------------------------------------------------|
A----------------------------------------------------|
E-0-------0---------------2------------2-------------|

e--------0---------0-----0-----------0--|
B--------0-----------0-----------4h5-0--|
G------6--------4------4----------------|
D----6--------4---------------2---------|
A--4--------2---------------0-----------|
E---------------------------------------|


>>> Verse
e--------------------------------------------0---------------|
B--------------------------------4-5-----------4-0-----------|
G--1-1-1-1---------------0----------------2------------------|
D--2-2-2-2--4-4-4-4------6-----4--------2--------------------|
A--2-2-2-2--4-4-4-4----6-----2--------0----------------------|
E--0-0-0-0--2-2-2-2--4---------------------------------------|

e------------------------------------0-------------|
B----------------------4h5-5------------4-0--------|
G--1-----------0------------------2----------------|
D--2---4-------6----------------2------------------|
A--2---4-----6-----2----------0--------------------|
E--0---2---4---------------------------------------|


>>> Strumming. Ung unang chord dito istrum nyo ng pataas..
e--0-----------0----------0----------0-------------|
B--0-----------0----------0----------0-------------|
G--6---6times--2--6times--6--6times--2--6times-----|
D--6-----------2----------6----------2-------------|
A--4-----------0----------4----------0-------------|
E--------------------------------------------------|

e--0-----------0----------0----------0-------------|
B--0-----------0----------0----------0-------------|
G--6---6times--2--6times--6--6times--2--6times-----|
D--6-----------2----------6----------2-------------|
A--4-----------0----------4----------0-------------|
E--------------------------------------------------|

>>> Back to this.
e---------------0---------------------------|
B--0---0---0-------0---0--0--0--------------|
G--2---4---6-----------2--4--6--------------|
D--2---4---6-----------2--4--6--------------|
A--0---2---4-----------0--2--4--------------|
E-------------------------------------------|

>>> Bigatan nyo agad ung distortion d2. and istrum nyo chord E ng malakas.

   E                          F#

e--0---------0----------0-----------------0------------0--|
B--0----------------------0------------0------------0-----|
G--1---1h2p1-----1h2p1------1----1h2p1--------1h2p1-------|
D--2------------------------------------------------------|
A--2------------------------------------------------------|
E--0-----------0---------------2------------2-------------|


  C#       B       A
e---------------------|
B---------------------|
G--6-------4-------2--|
D--6-------4-------2--|
A--4-------2-------0--|
E---------------------|


>>> Chorus. Istrum nyo lng 2ng mga chords na 2... sumabay na lng kau dun sa song...

 (By the sound of your message....)
e-----------------------------------------------------------------|
B-----------------------------------------------------------------|
G--1-----------------------6-----------4-----------2--------------|
D--2--8times---4-----------6--4times---4--4times---2--4times------|
A--2-----------4--8times---4-----------2-----------0--------------|
E--0-----------2--------------------------------------------------|

 (The Raining is neverending...)
e-----------------------------------------------------------------|
B-----------------------------------------------------------------|
G--1-----------------------6-----------4-----------2--------------|
D--2--8times---4-----------6--4times---4--4times---2--4times------|
A--2-----------4--8times---4-----------2-----------0--------------|
E--0-----------2--------------------------------------------------|


 (Why does it have to be like this?...)
e--0-----------0----------0----------0-------------|
B--0-----------0----------0----------0-------------|
G--6---8times--2--8times--6--8times--2--8times-----|
D--6-----------2----------6----------2-------------|
A--4-----------0----------4----------0-------------|
E--------------------------------------------------|

 (So do you want to see...)
e--0-----------0----------0----------0-------------|
B--0-----------0----------0----------0-------------|
G--6---8times--2--8times--6--8times--2--8times-----|
D--6-----------2----------6----------2-------------|
A--4-----------0----------4----------0-------------|
E--------------------------------------------------|

 (for you...)
e---------------0---------------------------|
B--0---0---0-------0---0--0--0--------------|
G--2---4---6-----------2--4--6--------------|
D--2---4---6-----------2--4--6--------------|
A--0---2---4-----------0--2--4--------------|
E-------------------------------------------|

 (I thought it was okay...)
e-----------------------------------------------------------------|
B-----------------------------------------------------------------|
G--1-----------------------6-----------4-----------2--------------|
D--2--8times---4-----------6--4times---4--4times---2--4times------|
A--2-----------4--8times---4-----------2-----------0--------------|
E--0-----------2--------------------------------------------------|

 (What did your embraces mean?...)
e-----------------------------------------------------------------|
B-----------------------------------------------------------------|
G--1-----------------------6-----------4-----------2--------------|
D--2--8times---4-----------6--4times---4--4times---2--4times------|
A--2-----------4--8times---4-----------2-----------0--------------|
E--0-----------2--------------------------------------------------|

>>> gawin nyo lng ulit itong part sa chorus na may ksabay na nilagay kong tab na 
kahit mahina lng..

 (my name...)
e-----------------------------------------------------------------|
B-----------------------------------------------------------------|
G--1-----------------------6-----------4-----------2--------------|
D--2--8times---4-----------6--4times---4--4times---2--4times------|
A--2-----------4--8times---4-----------2-----------0--------------|
E--0-----------2--------------------------------------------------|

 (my name...)
e-----------------------------------------------------------------|
B-----------------------------------------------------------------|
G--1-----------------------6-----------4-----------2--------------|
D--2--8times---4-----------6--4times---4--4times---2--4times------|
A--2-----------4--8times---4-----------2-----------0--------------|
E--0-----------2--------------------------------------------------|

>>> gawin nyo nang ulit light lang ung distortion then gawin nyo ung prang sa intro... 
on this...

e---------------0---------------------------|
B--0---0---0-------0---0--0--0--------------|
G--2---4---6-----------2--4--6--------------|
D--2---4---6-----------2--4--6--------------|
A--0---2---4-----------0--2--4--------------|
E-------------------------------------------|


tama ulit yan!!! mas cgurado ko diyan kaysa dun sa gnawa kong tab sa infatuation! un 
=p
comments
print report bad tab
9 comments total. Showing first comments.
0 reply
kanetatsu wrote on May 22 2006, 11:17 am

ung 0
0

0 reply
kanetatsu wrote on May 22 2006, 11:18 am

ooops sowe... may mali ka po... yung 024400 mo.. mas ok kung 044200 try mo po.... saka mali din yung plucking... sowe po sa coment....

0 reply
kanetatsu wrote on May 22 2006, 11:19 am

ay mali ulit... 244000 pla yung sayo hihihihi gwin mo na lng 044200 try mo ha tnx..

I want to post or [tab]
guest
You may want to rate the tab now too:
select rating
Please do not post tabs as comments. Select "correction" instead!