Oops, an error
Loading. Please wait.

Clutching Tab

version 3
version 3

Whole song

519 views 1 this week
no commentswrite comment
1 2 3 4 5
3 more votes to show rating
add to favorites
launch autoscroll
font size
0
reset
how to read this tab
guitar tuner
Autoscroll
slow
fast
+/-
esc
set tempo
stop
Help us to improve Ultimate-Guitar.com Take our survey!
×
TITLE: CLUTCHING
ARTIST:TYPECAST

Intro: --> very light distortion.

e---------------0----------------0----------|
B--0---0---0-------0---0--0--0------0-------|
G--2---4---6-----------2--4--6--------------|
D--2---4---6-----------2--4--6--------------|
A--0---2---4-----------0--2--4--------------|
E-------------------------------------------|



e------------------0-----------------0------------0--|
B--------------------0------------0------------0-----|
G---1h2p1---1h2p1------1----1h2p1--------1h2p1-------|
D----------------------------------------------------|
A----------------------------------------------------|
E-0-------0---------------2------------2-------------|

e--------0---------0-----0-----------0--|
B--------0-----------0-----------4h5-0--|
G------6--------4------4----------------|
D----6--------4---------------2---------|
A--4--------2---------------0-----------|
E---------------------------------------|


e--------------------------------------------0---------------|
B--------------------------------4-5-----------4-0-----------|
G--1-1-1-1---------------0----------------2------------------|
D--2-2-2-2--4-4-4-4------6-----4--------2--------------------|
A--2-2-2-2--4-4-4-4----6-----2--------0----------------------|
E--0-0-0-0--2-2-2-2--4---------------------------------------|

e------------------------------------0-------------|
B----------------------4h5-5------------4-0--------|
G--1-----------0------------------2----------------|
D--2---4-------6----------------2------------------|
A--2---4-----6-----2----------0--------------------|
E--0---2---4---------------------------------------|


>>> Strumming. Ung unang chord dito istrum nyo ng pataas..
e--0-----------0----------0----------0-------------|
B--0-----------0----------0----------0-------------|
G--6---6times--2--6times--6--6times--2--6times-----|
D--6-----------2----------6----------2-------------|
A--4-----------0----------4----------0-------------|
E--------------------------------------------------|

e--0-----------0----------0----------0-------------|
B--0-----------0----------0----------0-------------|
G--6---6times--2--6times--6--6times--2--6times-----|
D--6-----------2----------6----------2-------------|
A--4-----------0----------4----------0-------------|
E--------------------------------------------------|

>>> Back to this.
e---------------0---------------------------|
B--0---0---0-------0---0--0--0--------------|
G--2---4---6-----------2--4--6--------------|
D--2---4---6-----------2--4--6--------------|
A--0---2---4-----------0--2--4--------------|
E-------------------------------------------|

>>> Bigatan nyo agad ung distortion d2. and istrum nyo chord E ng malakas.

   E                          F#

e--0---------0----------0-----------------0------------0--|
B--0----------------------0------------0------------0-----|
G--1---1h2p1-----1h2p1------1----1h2p1--------1h2p1-------|
D--2------------------------------------------------------|
A--2------------------------------------------------------|
E--0-----------0---------------2------------2-------------|


  C#       B       A
e---------------------|
B---------------------|
G--6-------4-------2--|
D--6-------4-------2--|
A--4-------2-------0--|
E---------------------|


>>> Chorus. Istrum nyo lng 2ng mga chords na 2... sumabay na lng kau dun sa song...

 (By the sound of your message....)
e-----------------------------------------------------------------|
B-----------------------------------------------------------------|
G--1-----------------------6-----------4-----------2--------------|
D--2--8times---4-----------6--4times---4--4times---2--4times------|
A--2-----------4--8times---4-----------2-----------0--------------|
E--0-----------2--------------------------------------------------|

 (The Raining is neverending...)
e-----------------------------------------------------------------|
B-----------------------------------------------------------------|
G--1-----------------------6-----------4-----------2--------------|
D--2--8times---4-----------6--4times---4--4times---2--4times------|
A--2-----------4--8times---4-----------2-----------0--------------|
E--0-----------2--------------------------------------------------|


 (Why does it have to be like this?...)
e--0-----------0----------0----------0-------------|
B--0-----------0----------0----------0-------------|
G--6---8times--2--8times--6--8times--2--8times-----|
D--6-----------2----------6----------2-------------|
A--4-----------0----------4----------0-------------|
E--------------------------------------------------|

 (So do you want to see...)
e--0-----------0----------0----------0-------------|
B--0-----------0----------0----------0-------------|
G--6---8times--2--8times--6--8times--2--8times-----|
D--6-----------2----------6----------2-------------|
A--4-----------0----------4----------0-------------|
E--------------------------------------------------|

 (for you...)
e---------------0---------------------------|
B--0---0---0-------0---0--0--0--------------|
G--2---4---6-----------2--4--6--------------|
D--2---4---6-----------2--4--6--------------|
A--0---2---4-----------0--2--4--------------|
E-------------------------------------------|

 (I thought it was okay...)
e-----------------------------------------------------------------|
B-----------------------------------------------------------------|
G--1-----------------------6-----------4-----------2--------------|
D--2--8times---4-----------6--4times---4--4times---2--4times------|
A--2-----------4--8times---4-----------2-----------0--------------|
E--0-----------2--------------------------------------------------|

 (What did your embraces mean?...)
e-----------------------------------------------------------------|
B-----------------------------------------------------------------|
G--1-----------------------6-----------4-----------2--------------|
D--2--8times---4-----------6--4times---4--4times---2--4times------|
A--2-----------4--8times---4-----------2-----------0--------------|
E--0-----------2--------------------------------------------------|

>>> gawin nyo lng ulit itong part sa chorus na may ksabay na nilagay kong tab na 
kahit mahina lng..

 (my name...)
e-----------------------------------------------------------------|
B-----------------------------------------------------------------|
G--1-----------------------6-----------4-----------2--------------|
D--2--8times---4-----------6--4times---4--4times---2--4times------|
A--2-----------4--8times---4-----------2-----------0--------------|
E--0-----------2--------------------------------------------------|

 (my name...)
e-----------------------------------------------------------------|
B-----------------------------------------------------------------|
G--1-----------------------6-----------4-----------2--------------|
D--2--8times---4-----------6--4times---4--4times---2--4times------|
A--2-----------4--8times---4-----------2-----------0--------------|
E--0-----------2--------------------------------------------------|

>>> gawin nyo nang ulit light lang ung distortion then gawin nyo ung prang sa intro... 
on this...

e---------------0---------------------------|
B--0---0---0-------0---0--0--0--------------|
G--2---4---6-----------2--4--6--------------|
D--2---4---6-----------2--4--6--------------|
A--0---2---4-----------0--2--4--------------|
E-------------------------------------------|



Suggest correction
Give kudos to tab author, rate the tab!
1 2 3 4 5
comments
print report bad tab
guest
You may want to rate the tab now too:
select rating
Wanna post a correction for this tab? Suggest correction