Oops, an error
Loading. Please wait.

Conflict Bass Tab

359 views 1 this week
no commentswrite comment
1 2 3 4 5
accurate
x 3
add to favorites
launch autoscroll
font size
0
reset
guitar tuner
Autoscroll
slow
fast
+/-
esc
set tempo
stop
Help us to improve Ultimate-Guitar.com Take our survey!
×
Author
Difficulty
Tuning
paul21 911
advanced
D A D G B E
Song:      The Conflict
Artist:    Typecast
Album:     Every Moss and Cobweb
Tabbed by: Paul Anthonie Antoc
E-mail: paul_antoc@yahoo.com
Address: Mariveles,Bataan,Philippines
contact #: 09184423602

Elow po sa mga friends ko sila Calvin,Jon,Otep,Emak,Aerol,Tuts.. at iba 
pa.. sa mga clasm8s ko sa MNHS(annex) IV-A.. mabuhay kayong lahat.. hehe
Binabati ko rin si Maria Lourdes Vejar, HEHE.. wala lang.. HEHEHE!!


Gtr. Legends:
 x - dead note
 / - slide
 h - hammer
 ~ - let it ring

Drop D Tuning


Verse: "They push us further.."
G|------------------------------------------|
D|------------------------------------------| 2x
A|------------------------------------------|
D|--66-666-666-666--22222222222222----------|

Chorus: "They tire our hearts.."
G|----------------------------------------------------------|
D|----------------------------------------------------------| 2x
A|----------------------------------------------------------|
D|-4h6-4h6-4h6-4h6-22-4h6-4h6-4h6-4h6-22-2222222222222222---|


 After the Chorus:
G|---------------------------------------------------|
D|---------------------------------------------------| 
A|---------------------------------------------------|
D|--4/6-9-4-6~--4/6-9-4-6~-22222222222222------------|

Repeat Verse
Repeat Chorus

After Chorus 2 (01:40)
G|-------------|
D|-------------| 
A|-------------|
D|--6-6-6-6----|

Bridge:
G|-----------------------------------|
D|-----------------------------------| 2x
A|-----------------------------------|
D|--6--6--6--6---222222222222222-----|


  "Strike Us with everything you've got.."
G|----------------------------------------|
D|----------------------------------------|
A|----------------------------------------|
D|--4-6-2~--4-6-2~--4-6-2~--4-6-2~--------|


Outro: "Their fangs will shatter.."

G|------------------------------------------|
D|------------------------------------------| 4x
A|------------------------------------------|
D|-4h6-4h6-4h6-4h6-22--4h6-4h6-4h6-4h6-22---|


Last Chords:

G|--------------------------|
D|--------------------------| 
A|--------------------------|
D|--4--6--2~--1~--0--0--0---|
                  x  x  x

End



The Conflict Lyrics:

Verse:
They push us further
Away from this
Far away from reason
This have got to end

Chorus:
They tire our hearts
Bending us as hard as they can
We will survive
As long as we stand together

Verse:
This darkest moment
The light deprives the sun
Their fangs will shatter
In the end we are the ones who’ll be left strong

Repeat Chorus:

Bridge:
Strike us with everything you’ve got
Strip us of everything we hold
(repeat)

Their fangs will shatter
In the end we are the ones
We are the ones
 (repeat)

Suggest correction new What's this?
You can suggest a correction to this tab. Community and Mods will review your correction and vote to approve or reject it.
comments
We did not receive enough feedback on this tab! Please rate:
print report bad tab
1 2 3 4 5
guest
You may want to rate the tab now too:
select rating
Please do not post tabs as comments. Select "correction" instead!