Oops, an error
Loading. Please wait.

Conflict Tab

version 1
version 1

Whole song

566 views 1 this week
3 commentsread comments
1 2 3 4 5
please rate
add to favorites
launch autoscroll
font size
0
reset
how to read this tab
guitar tuner
Autoscroll
slow
fast
+/-
esc
set tempo
stop
Help us to improve Ultimate-Guitar.com Take our survey!
×
Author
Tuning
C G C F A D
Typecast

Title: The Conflict
Album: Every Moss And Cobweb
Tabbed by: Carlos Labao

This is my second tab kaya sana mejo maganda na ang pagtatab ko, first tab ko dito ung 
Drama(ver 2). Pakirate nalang po un... 99% ako sure dito sa kanta na to, wala na kaung 
pagaralan to. *Asa tono dapat gitara niyo* Enjoy nalang...

Attention: Hello kay Irwin "Asim"! hehehe... =D

Dropped C


*guitar 1*

Verse pt.1

-|------------------------------9----9-13-11-9-|
-|-------------------------9h11----------------|
-|--------------------8h10--------10-----------|
-|-88-8888-8888-8888---------------------------|
-|-88-8888-8888-8888---------------------------|
-|-88-8888-8888-8888---------------------------|

-|-----------9----13-11-13-11-9-|
-|------9h11--------------------|
-|-8h10--------10---------------|
-|------------------------------|
-|------------------------------|
-|------------------------------|

Verse pt.2

-|--------------------------------|
-|--------------------------------|
-|--------------------17-18-13-15-|
-|-88-8888-8888-8888--x--x--x--x--|
-|-88-8888-8888-8888--15-16-11-13-|
-|-88-8888-8888-8888--------------|

Verse pt.3

-|--------------------------- /
-|------------------------|\- /
-|--------------------------- / \
-|-6h8-8-6-8-6h8-8-6-8-44---- /  x2
-|-6h8-8-6-8-6h8-8-6-8-44-|-- /
-|-6h8-8-6-8-6h8-8-6-8-44---- /

-|--------------------------- /
-|------6----6---6--------|\- /
-|--------------------------- / \
-|-4444-4-44-4-4-4-444444---- /  x2
-|-4444-4-44-4-4-4-444444-|-- /
-|-4444-4-44-4-4-4-444444---- /
   ....   ..   .   ......

Verse pt.4

-|--------------------------- /
-|------------------------|\- /
-|--------------------------- / \
-|-6h8-8-6-8-6h8-8-6-8-44---- /  x2
-|-6h8-8-6-8-6h8-8-6-8-44-|-- /
-|-6h8-8-6-8-6h8-8-6-8-44---- /

-|-------------|
-|-------------|
-|-------------|
-|-13-15-17-18-|
-|-x--x--x--x--|
-|-11-13-15-16-|

Interlude 1

-|--------------------------|
-|---------------------9----|
-|----------------8-----h10-|
-|-8-66-11-6-8s0---h10------|
-|-8-66-11-6-8s0------------|
-|-8-66-11-6-8s0------------|

-|---------------------------|
-|---------------------------|
-|----------------10-10-10s0-|
-|-8-66-11-6-8s0-------------|
-|-8-66-11-6-8s0-------------|
-|-8-66-11-6-8s0-------------|

-|--------------------------- /
-|------6----6---6--------|\- /
-|--------------------------- / \
-|-4444-4-44-4-4-4-444444---- /  x2
-|-4444-4-44-4-4-4-444444-|-- /
-|-4444-4-44-4-4-4-444444---- /
   ....   ..   .   ......

Interlude 2

-|------------------------------------------------- /     \
-|------------------------------------------------- /      \
-|------------------------------------------------- /       \
-|--------------------------10-10-10-10------------ /        \
-|(comes in after guitar 2)-8--8--8--8------------- /         \
-|--------------------------8--8--8--8------------- /          \
					            \
-|----------------------------------------------------- /   \
-|---------------------------------------------9------- /    \
-|---------------------------------10------------------ /     x2
-|-8-11-10-8--8-11-10-8--8-11-10-8----10-10h11---|   -- /
-|-8----------8----------8-----------------------|  --- /
-|-8----------8----------8-----------------------| ---- /
						   /
-|-------------|\                 ---------------- /
-|-14----14----| \                              -- /
-|-17h18-17h18-|  x6                           --- /
-|-------------| /                  -------------- /
-|-------------|/                 ---------------- /
-|-------------|                            ------ /

Bridge

-|-------------------------------------------------------|
-|-------------------------------------------------------|
-|-------------------------------------------------------|
-|-6-8-4~--6-8-4~--6-8-4~--6-8-4--11-10------------6-8-4-|
-|-6-8-4~--6-8-4~--6-8-4~--6-8-4--------11-11h13~--6-8-4-|
-|-6-8-4~--6-8-4~--6-8-4~--6-8-4-------------------6-8-4-|

Interlude 3

-|--------------------------- /
-|------------------------|\- /
-|--------------------------- / \
-|-6h8-8-6-8-6h8-8-6-8-44---- /  x4
-|-6h8-8-6-8-6h8-8-6-8-44-|-- /
-|-6h8-8-6-8-6h8-8-6-8-44---- /

Outro

-|--------------------------- /
-|------------------------|\- /
-|--------------------------- / \
-|-6h8-8-6-8-6h8-8-6-8-44---- /  x4
-|-6h8-8-6-8-6h8-8-6-8-44-|-- /
-|-6h8-8-6-8-6h8-8-6-8-44---- /

-|------------------------|\- /
-|----------------------6---- / \
-|-5h66-5h66-5h66-5h66-5----- /  x3
-|------------------------|-- /
-|--------------------------- /
-|--------------------------- /
   . .. . .. . .. . .. ..
-|-----------------|
-|-----------------|
-|-----------------|
-|-6-8-4~--3~--111-|
-|-6-8-4~--3~--111-|
-|-6-8-4~--3~--111-|
               ...

*guitar 2*

Verse pt. 1-2

-|-------------------------------------------|
-|-------------------------------------------|
-|-10-10-10-10-10-10-10-10-10-10-10-10-10-10-|
-|-8--8--8--8--8--8--8--8--8--8--8--8--8--8--|
-|-------------------------------------------|
-|-------------------------------------------|

-|--------------------------- /
-|------------------------|\- /
-|--------------------------- / \
-|-4444-4-44-4-4-4-444444---- /  x2
-|-4444-4-44-4-4-4-444444-|-- /
-|-4444-4-44-4-4-4-444444---- /
   ....   ..   .   ......

Verse pt. 3-4

-|------------------------------ /
-|---------------------------|\- /
-|------------------------------ / \
-|-6h8-8-6-8-6h8-8-6-8-11-11---- /  x2
-|-6h8-8-6-8-6h8-8-6-8-11-11-|-- /
-|-6h8-8-6-8-6h8-8-6-8-11-11---- /

-|--------------------------- /
-|------------------------|\- /
-|--------------------------- / \
-|-4444-4-44-4-4-4-444444---- /  x2
-|-4444-4-44-4-4-4-444444-|-- /
-|-4444-4-44-4-4-4-444444---- /
   ....   ..   .   ......

Interlude 1

-|---------------|
-|---------------|
-|---------------|
-|-8-66-11-6-8s0-|
-|-8-66-11-6-8s0-|
-|-8-66-11-6-8s0-|

-|---------------------------|
-|---------------------------|
-|----------------10-10-10s0-|
-|-8-66-11-6-8s0--8--8--8-s0-|
-|-8-66-11-6-8s0-------------|
-|-8-66-11-6-8s0-------------|

-|--------------------------- /
-|------------------------|\- /
-|--------------------------- / \
-|-4444-4-44-4-4-4-444444---- /  x2
-|-4444-4-44-4-4-4-444444-|-- /
-|-4444-4-44-4-4-4-444444---- /
   ....   ..   .   ......

Interlude 2

-|-----------------|
-|-----------------|
-|-----------------|
-|-8-8-8-8-8-8-8-8-|
-|-8-8-8-8-8-8-8-8-|
-|-8-8-8-8-8-8-8-8-|

-|-------------------------------------|
-|---6h7p6---6h7p6---6h7p6-9p6-7p6-----|
-|---------------------------------6s0-|
-|-8-------8-------8-------------------|
-|-8-------8-------8-------------------|
-|-8-------8-------8-------------------|

-|---------------------------|
-|---------------------------|
-|---------------------------|
-|-4-444-4-444-4-444-4-44444-|
-|-4-444-4-444-4-444-4-44444-|
-|-4-444-4-444-4-444-4-44444-|

-|-----------------|
-|-----------------|
-|-----------------|
-|-8-8-8-8-8-8-8-8-|
-|-8-8-8-8-8-8-8-8-|
-|-8-8-8-8-8-8-8-8-|

-|-------------------------------------|
-|---6h7p6---6h7p6---6h7p6-9p6-7p6-----|
-|---------------------------------6s0-|
-|-8-------8-------8-------------------|
-|-8-------8-------8-------------------|
-|-8-------8-------8-------------------|

-|--------------------------|
-|--------------------------|
-|--------------------------|
-|-4-444-4-444-4-444-6-8-4~-|
-|-4-444-4-444-4-444-6-8-4~-|
-|-4-444-4-444-4-444-6-8-4~-|

Bridge

-|--------------------------------------------------------|
-|--------------------------------------------------------|
-|----------------5s6-5s6-5s6----------5s6-5s6-5s6--------|
-|-6-8-4~--6-8-4~--------------6-8-4~---------------6-8-4-|
-|-6-8-4~--6-8-4~--------------6-8-4~---------------6-8-4-|
-|-6-8-4~--6-8-4~--------------6-8-4~---------------6-8-4-|

Interlude 3

-|---------------------------|
-|-(comes in after guitar 1)-|
-|-(pickslide)---------------|
-|---------------------------|
-|---------------------------|
-|---------------------------|

Outro

-|--------------------------- /
-|------------------------|\- /
-|--------------------------- / \
-|-6h8-8-6-8-6h8-8-6-8-44---- /  x4
-|-6h8-8-6-8-6h8-8-6-8-44-|-- /
-|-6h8-8-6-8-6h8-8-6-8-44---- /

-|-------------------- /
-|-----------------|\- /
-|-------------------- / \
-|-688-68-68-68-44---- /  x3
-|-688-68-68-68-44-|-- /
-|-688-68-68-68-44---- /
   ... .  .  .

-|--------------------------- /
-|------------------------|\- /
-|--------------------------- / \
-|-688-68-6--6-8-4~-3~-111--- /  x3
-|-688-68-6--6-8-4~-3~-111|-- /
-|-688-68-6--6-8-4~-3~-111--- /
   ... .               ...
Suggest correction new What's this?
You can suggest a correction to this tab. Community and Mods will review your correction and vote to approve or reject it.
comments
We did not receive enough feedback on this tab! Please rate:
print report bad tab
1 2 3 4 5
3 comments total.
0 reply
your_heroine 42 wrote on January 9 2007, 09:31 pm

sure kb jan????s pagkaka'alam ko wlng dropc ang typecast..coment lng tol wlng personalan....

0 reply
doobidoo 8,712 wrote on March 22 2007, 03:08 am

nagpapakahirap ka pwede naman ang standard tuning......eheh....

0 reply
carloz16 67 wrote on June 8 2007, 10:37 pm

Di nmn sa wla clang drop c, eh kc cnbi sakin n paulit ult n nagtotono ng gtara c steve. All strings 1 step down, ung infatuation lng n album ang wlang drop c...

guest
You may want to rate the tab now too:
select rating
Please do not post tabs as comments. Select "correction" instead!