Oops, an error
Loading. Please wait.

Conflict Tab

version 2
version 2

Whole song

1,358 views 1 this week
3 commentsread comments
1 2 3 4 5
please rate
add to favorites
launch autoscroll
font size
0
reset
how to read this tab
guitar tuner
Tab Pro tools
  • play this tab
  • loop segment
  • change instrument
  • show fretboard
  • metronome
×
Best way to learn
"Conflict"
Autoscroll
slow
fast
+/-
esc
set tempo
stop
Contributor
Typecast
The Conflict
Every Moss and Cobweb
tabbed by: paramore_fans@yahoo.com

Tuning: Drop D


Verse 1: (Screams) They push us further...

Guitar 1:
e|---------|-----|--------
B|---------|-----|--------
G|---------|-----|--------
D|-6-6-6-6-|-1/2-|-2------
A|-6-6-6-6-|-1/2-|-2(x31)-
D|-6-6-6-6-|-1/2-|-2------
     x4            palm mute

Guitar 2: * means harmonics
e|---------|-----|----------------9--11--9----------------------9--11--9--11p9-
B|---------|-5*--|-----11---12--------------12------11---12--------------------
G|-8-8/9\8-|-----|-8h9----------9---------------8h9----------9-----------------
D|-x-x/x\x-|-----|--------9----------------------------9-----------------------
A|-6-6/7\6-|-----|-------------------------------------------------------------
D|---------|-----|-------------------------------------------------------------



Far away from reason ...

Guitar 1:
e|---------|-----|--------
B|---------|-----|--------
G|---------|-----|--------
D|-6-6-6-6-|-1/2-|-2------
A|-6-6-6-6-|-1/2-|-2(x15)-
D|-6-6-6-6-|-1/2-|-2------
     x4            palm mute

Guitar 2: * means harmonics
e|---------|-----|----------------------------
B|---------|-5*--|----------------------------
G|-8-8/9\8-|-----|-15-----16----11-----13-----
D|-x-x/x\x-|-----|--x(x8)--x(x8)-x(x8)--x(x8)-
A|-6-6/7\6-|-----|-13-----14-----9-----11-----
D|---------|-----|----------------------------
     x4


Chorus:

They tire our hearts...

Guitar 1:
e|--------------------------------------------------|--------
B|--------------------------------------------------|--------
G|--------------------------------------------------|--------
D|-4/6--4/6--4/6--4/6--2---4/6--4/6--4/6--4/6--9--8-|-2------
A|-4/6--4/6--4/6--4/6--2---4/6--4/6--4/6--4/6--9--9-|-2(x32)-
D|-4/6--4/6--4/6--4/6--2---4/6--4/6--4/6--4/6--9--8-|-2------
                                                      palm mute       

Guitar 2: Idle


We will survive...

Guitar 1:
e|--------------------------------------------------|--------
B|--------------------------------------------------|--------
G|--------------------------------------------------|--------
D|-4/6--4/6--4/6--4/6--2---4/6--4/6--4/6--4/6--9--8-|-2------
A|-4/6--4/6--4/6--4/6--2---4/6--4/6--4/6--4/6--9--9-|-2(x32)-
D|-4/6--4/6--4/6--4/6--2---4/6--4/6--4/6--4/6--9--8-|-2------
                                                      palm mute       

Guitar 2:
e|------|----------------------------
B|------|----------------------------
G|------|-9-----11-----13-----16-----
D|-Idle-|-x(x8)--x(x8)--x(x8)--x(x8)-
A|------|-7------9-----11-----14-----
D|------|----------------------------


Interlude :

Guitar 1:
e|--------------|------|--------------|------|--------
B|--------------|------|--------------|------|--------
G|--------------|------|--------------|------|--------
D|-4/6--9--4--6-|-Idle-|-4/6--9--4--6-|-Idle-|-2------
A|-4/6--9--4--6-|------|-4/6--9--4--6-|------|-2(x32)-
D|-4/6--9--4--6-|------|-4/6--9--4--6-|------|-2------

Guitar 2:
e|------|----------|------|---------|------
B|------|----------|------|---------|------
G|------|-8---11p8-|------|---------|------
D|-Idle-|---9------|-Idle-|-9--9--9-|-Idle-
A|------|----------|------|-9--9--9-|------
D|------|----------|------|-9--9--9-|------


Verse 2: The darkest moment...

Guitar 1:
e|---------|-----|--------
B|---------|-----|--------
G|---------|-----|--------
D|-6-6-6-6-|-1/2-|-2------
A|-6-6-6-6-|-1/2-|-2(x31)-
D|-6-6-6-6-|-1/2-|-2------
     x4            palm mute

Guitar 2: * means harmonics
e|---------|-----|----------------9--11--9----------------------9--11--9--11p9-
B|---------|-5*--|-----11---12--------------12------11---12--------------------
G|-8-8/9\8-|-----|-8h9----------9---------------8h9----------9-----------------
D|-x-x/x\x-|-----|--------9----------------------------9-----------------------
A|-6-6/7\6-|-----|-------------------------------------------------------------
D|---------|-----|-------------------------------------------------------------


Their fangs will shatter...

Guitar 1:
e|---------|-----|--------
B|---------|-----|--------
G|---------|-----|--------
D|-6-6-6-6-|-1/2-|-2------
A|-6-6-6-6-|-1/2-|-2(x15)-
D|-6-6-6-6-|-1/2-|-2------
     x4            palm mute

Guitar 2: * means harmonics
e|---------|-----|----------------------------
B|---------|-5*--|----------------------------
G|-8-8/9\8-|-----|-15-----16-----9-----11-----
D|-x-x/x\x-|-----|--x(x8)--x(x8)-x(x8)--x(x8)-
A|-6-6/7\6-|-----|-13-----14-----7------9-----
D|---------|-----|----------------------------
     x4


(Repeat Chorus)


Interlude 2:

Guitar 1:
e|------------
B|------------
G|------------
D|-6--6--6--6-
A|-6--6--6--6-
D|-6--6--6--6-
       x2

Guitar 2:
e|------------
B|------------
G|------------
D|-8--8--8--8-
A|-6--6--6--6-
D|-6--6--6--6-
at 2nd turn of guitar 1


Beat switches to 3/4

Guitar 1:
e|---|--------
B|---|--------
G|---|--------
D|-6-|-2------ (x2)
A|-6-|-2(x24)-
D|-6-|-2------
  x4

Guitar 2:
e|-------|--------------------|-------
B|-------|--------------------|-11h12-
G|-8h9p8-|-8h9p8-11-9-8h9p8---|-------
D|-------|------------------9-|------- (x2)
A|-------|--------------------|-------
D|-------|--------------------|-------
   x3                           x12
(repeat)


Bridge: Strike us with everything you’ve got...

Guitar 1:
e|---------
B|---------
G|---------
D|-4--6--2- (x4)
A|-4--6--2-
D|-4--6--2-

Guitar 2: will enter at third time
e|-------------------------
B|-------------------------
G|-4-4-3-6-6-6-------------
D|-------------4-4-4-6-6-6- (x2)
A|-------------------------
D|-------------------------

Guitar 1: Idle and pick slide

Guitar 2:
e|---------------------
B|---------------------
G|---------------------
D|-4h6-6-4h6-4h6-4h6--- (x8) before 5th time, drums will roll first
A|-------------------7-
D|---------------------

Guitar 1:
e|----------|--------------
B|----------|--------------
G|----------|--------------
D|-6------2-|-4--6--2---1~-
A|-6(x15)-2-|-4--6--2---1~-
D|-6------2-|-4--6--2---1~-
      x3

Guitar 2:
e|------------------------|---------
B|----------------------4-|---------
G|---4-4-3-4-3-4-4-3-4----|---------
D|-6----------------------|-1--1--1-
A|------------------------|-1--1--1-
D|------------------------|-1--1--1-
            x3

_______________________________________________________

Lyrics:

Key: B

Chords used: for Drop D
G#m -   666xxx
E -     222xxx
F# -    444xxx
Ebm -   111xxx
B -     999xxx
F#/Bb - 898xxx


Chords used: for Standard EADGBe
G#m -   466444
E -     022100
F# -    244322
Ebm -   x68876
B -     x24442
F#/Bb - x143xx


Verse 1:
G#m
  They push us further
          E
Away from this
G#m
  Far away from reason
                 E
This have got to end


Chorus:
F#-G#m x3    B    F#/Bb F#-G#m x3
        They tire our   hearts
        B  F#/Bb E
Bending us as    hard
as they can
F#-G#m x3  B    F#/Bb F#-G#m x3
        We will sur---vive
   B    F#/Bb E
As long as    we
stand together


Interlude: F#-G#m-B-F#-G#m x2, E


Verse 2:
G#m
   This darkest moment
                   E
The light deprives the sun
G#m
   Their fangs will shatter
                      E
In the end we are the ones
who’ll be left strong


(Repeat Chorus)


Interlude: G#m x8, G#m--E x2


Bridge:
F#-G#m-E
        Strike us with
everything you’ve got
F#-G#m-E
        Strip us of
everything we hold
(repeat)
F#-G#m-E


Interlude: G#m--E x4


Outro:
G#m                 E
   Their fangs will shatter
G#m              E
   In the end we are the ones
(Repeat)
G#m--E

           G#m F#-G#m-E, Ebm
We are the ones
comments
We did not receive enough feedback on this tab! Please rate:
print report bad tab
1 2 3 4 5
3 comments total.
0 reply
doobidoo wrote on March 22 2007, 03:04 am

pwede na...heheheh.....

0 reply
doobidoo wrote on March 22 2007, 03:06 am

you're not a filipino but ...you know typecst ...ooowwwwww,,,,....great....5*

0 reply
paul21 wrote on April 28 2007, 02:06 am

ano yung idle? weird... 5twinkling stars bro

I want to post or [tab]
guest
You may want to rate the tab now too:
select rating
Please do not post tabs as comments. Select "correction" instead!